If 6 Was 9 - Various Chords

(/) Slide Up  (\) Slide Down  (h) Hammer On  (p) Pull Off  (b) Bend (r) Release (v) Vibrato


E|--5--3--2--------------
B|--5--3--2--------8--8--
G|--4--2--1--------7--7--
D|--5--3--2--------6--6--
A|-----------------7--7--
E|--5--3--2--------------



E|-----------5--3--2--3--
B|--8--8-----5--3--2--1--
G|--7--7-----4--2--1--2--
D|--6--6--7--5--3--2--3--
A|--7--7--7--------------
E|-----------5--3--2--1--



E|--3------5--3------7--7--
B|--3--12--5--3--12--7--7--
G|--4--9---4--2--9---7--7--
D|--2--11--5--3--11--7--7--
A|--3--11--------11--7--9--
E|---------5--3------7--7--
http://www.guitartabcreator.com
Guitar Tab Creator is intended to store guitar tab created through the tool. It currently does not support in-line text editing. Any text you place in here will be lost. If you need to comment on your tab, please use the "Tab Notes" section located below.