Hosanna (Praise Is Rising) - Baloche Version

(/) Slide Up  (\) Slide Down  (h) Hammer On  (p) Pull Off  (b) Bend (r) Release (v) Vibrato


E|--------------------------------------------------------------
B|--0-----------------------------------------------------------
G|-----2------------------0--------0----------------0--------0--
D|---------------------4--------4----------------4--------4-----
A|------------------5--------3----------------5--------3--------
E|--------------------------------------------------------------



E|--8--7--7--8--7--10--7--8--
B|--8--8--8--8--8--10--8--8--
G|---------------------------
D|---------------------------
A|---------------------------
E|---------------------------



E|-------------------------------------7\5--3-----------------
B|---------------------------------------------1--------0-----
G|--11--12--11--12--11--12--------5/7----5-----------------2--
D|------------------------------------------------------------
A|------------------------------------------------------------
E|------------------------------------------------------------



E|-----------------------------10-------------------------
B|--------------------------8------8--7--8----------0-----
G|-----------------------------------------------------2--
D|--11--12--11--12----------------------------------------
A|--------------------------------------------------------
E|--------------------------------------------------------



E|----------------------------------------
B|-------------------------------------8--
G|--------0--------0-------------7--------
D|-----4--------4-----------7/9-----9-----
A|--5--------3----------------------------
E|----------------------------------------



E|----------------------------------------------------------------------------------
B|------------------------------------12--15----------------------------------------
G|--11--12--11--12--11--12--12--14--------------11--12--11--12--11--12--11--12--14--
D|----------------------------------------------------------------------------------
A|----------------------------------------------------------------------------------
E|----------------------------------------------------------------------------------



E|---------------------------------------------------------------------------------
B|----------15------------15/17------17--15--17--17--12--------15--17--12------13--
G|--11--12--------11--12---------------------------------14----------------14------
D|---------------------------------------------------------------------------------
A|---------------------------------------------------------------------------------
E|---------------------------------------------------------------------------------



E|----------------------------------------------------------------
B|--15--17--12------------------------15----------15----------15--
G|--------------14--12--------11--12------11--12------11--12------
D|----------------------------------------------------------------
A|----------------------------------------------------------------
E|----------------------------------------------------------------
http://www.guitartabcreator.com
Guitar Tab Creator is intended to store guitar tab created through the tool. It currently does not support in-line text editing. Any text you place in here will be lost. If you need to comment on your tab, please use the "Tab Notes" section located below.