Greensleeves

(/) Slide Up  (\) Slide Down  (h) Hammer On  (p) Pull Off  (b) Bend (r) Release (v) Vibrato

E|-----------2--0-----------------------------------------
B|--1--3--5--------3--------------1--------------0--------
G|--2-----5-----------4--0--2--4--2--2--2--1--2-----1-----
D|--2-----------------------------2--------------------2--
A|--0-----3-----------------------0-----------------------
E|-----------------3-----------------------------0--------



E|-----------2--0--------------------------------------
B|--1--3--5--------3--------------1--0-----0--------1--
G|--2-----5-----------4--0--2--4--2-----2--1-----1--2--
D|--2-----------------------------2--------2--4-----2--
A|--0-----3-----------------------0-----------------0--
E|-----------------3-----------------------0-----------



E|--3--3--2--0-----------------------------------------
B|--1-----------3--------------1--------------0--------
G|--0-----------4--4--0--2--4--2--2--2--1--2-----1-----
D|-----------------------------2--------------------2--
A|--3-----------2--------------0-----------------------
E|--------------------------------------------0--------
http://www.guitartabcreator.com
Guitar Tab Creator is intended to store guitar tab created through the tool. It currently does not support in-line text editing. Any text you place in here will be lost. If you need to comment on your tab, please use the "Tab Notes" section located below.