God Is Able

(/) Slide Up  (\) Slide Down  (h) Hammer On  (p) Pull Off  (b) Bend (r) Release (v) Vibrato


E|--9\7--7--9\7--11--12--12--11----9\7--9--9\7-----------7--
B|----------------------------------------------7--9--9-----
G|----------------------------------------------------------
D|----------------------------------------------------------
A|----------------------------------------------------------
E|----------------------------------------------------------



E|-------7-----4-----6--
B|----------------------
G|--6/8-----4-----6-----
D|----------------------
A|----------------------
E|----------------------



E|-----------------------------------------------------
B|------12------14--12--------------12------14--12-----
G|--11------11----------11------11------11----------9--
D|-----------------------------------------------------
A|-----------------------------------------------------
E|-----------------------------------------------------



E|-------------------------------------------------------
B|------12------14--12--11------------12------14--12-----
G|--11------11--------------------11------11----------9--
D|-------------------------------------------------------
A|-------------------------------------------------------
E|-------------------------------------------------------



E|--14--14--14--14--14--12--12--11--9--9--9--9--11--12--
B|------------------------------------------------------
G|--11--11--11--11--11--9---9---8---6--6--6--6--8---9---
D|------------------------------------------------------
A|------------------------------------------------------
E|------------------------------------------------------



E|--14--14--14--14--11--9--12--
B|-----------------------------
G|--11--11--11--11--8---6--9---
D|-----------------------------
A|-----------------------------
E|-----------------------------
http://www.guitartabcreator.com
Guitar Tab Creator is intended to store guitar tab created through the tool. It currently does not support in-line text editing. Any text you place in here will be lost. If you need to comment on your tab, please use the "Tab Notes" section located below.