"Nostalgia" - Yozoh ft. Eric Shinhwa

(/) Slide Up  (\) Slide Down  (h) Hammer On  (p) Pull Off  (b) Bend (r) Release (v) Vibrato
E|------2-------2h3----0--------------------------0-------0h2---------------------------
B|------0-------3------2-------2h3----2--3--------2-------2--------3-------3----3h5-----
G|-----------0---------2-------2------2--2--------2----2-----------4-------4---------4--
D|--------------------------2-------------------------------------------4---------------
A|---------------------0-------------------------------------------2--------------------
E|------3-----------------------------------------2-------------------------------------



E|------2-------2h3----0------5--------0-------0h2--------2-------2h5p2-----
B|------0-------3------2------5/7------2-------2----------3----0---------3--
G|-----------0---------2---------------2----2-------------------------------
D|--------------------------------------------------------------------------
A|---------------------0----------------------------------------------------
E|------3------------------------------2------------------2-----------------
http://www.guitartabcreator.com
Guitar Tab Creator is intended to store guitar tab created through the tool. It currently does not support in-line text editing. Any text you place in here will be lost. If you need to comment on your tab, please use the "Tab Notes" section located below.