Last Dance

(/) Slide Up  (\) Slide Down  (h) Hammer On  (p) Pull Off  (b) Bend (r) Release (v) Vibrato
E|---
B|---
G|-8-
D|---
A|---
E|---



E|-----------|-----------|------------|-----
B|-----------|-----------|------------|-----
G|--8--------|--8--------|--8------8--|-----
D|-----------|-----------|------------|-----
A|-----------|-----------|------------|--6--
E|-----------|-----------|------------|-----



E|-----------|-----------|------------|--
B|-----------|-----------|------------|--
G|-----------|-----------|------------|--
D|-----------|-----------|------------|--
A|--6--------|--6--------|--6---------|--
E|-----------|-----------|---------6--|--



E|-----------|-----------|-----------|-----
B|-----------|-----------|-----------|-----
G|-----------|-----------|-----------|-----
D|-----------|-----------|-----------|-----
A|-----------|-----------|-----------|--3--
E|--4--------|--4--------|--3--------|-----



E|------------------|-
B|------------------|-
G|------------------|-
D|------------------|-
A|-1-1----1-1-----1-|-
E|-----1------1h3---|-



E|------|-------|------------------
B|------|-------|------------------
G|------|-------|------------------
D|------|-------|------------------
A|------|-------|-6-6----6-6-----6-
E|-5----|-6-6---|-----6------6h8---



E|------------
B|------------
G|------------
D|---------10-
A|------------
E|-8---8-8----



E|----------------------------------
B|----------------------------------
G|---10-----------------------------
D|--------3---4---5--------6-6------
A|-8---------------------6------6---
E|------1---2---3---4--4----------4-
http://www.guitartabcreator.com
Guitar Tab Creator is intended to store guitar tab created through the tool. It currently does not support in-line text editing. Any text you place in here will be lost. If you need to comment on your tab, please use the "Tab Notes" section located below.