Why Do You Hurt Me

(/) Slide Up  (\) Slide Down  (h) Hammer On  (p) Pull Off  (b) Bend (r) Release (v) Vibrato


E|------------------------------------
B|------------------------------------
G|------------------------------------
D|------------------------------------
A|------------------------------------
E|--0--0------------------0--0--------



E|-----------------------------------------------------------------|--
B|-----------------------------------------------------------------|--
G|-----------------------------------------------------------------|--
D|-----------------------------------------------------------------|--
A|--------2h3p2--5----------2h3p2--5----------2h3p2--5----5--3--2--|--
E|--0--0--------------0--0--------------0--0-----------------------|--



E|-------------------------------------------------------------------------------------------------
B|-------------------------------------------------------------------------------------------------
G|-------------------------------------------------------------------------------------------------
D|-------------------------------------------------------------------------------------------------
A|-------------------------------------------------------------------------------------------------
E|--0--0--0h12--0--0--0h12--0--0--0h12--0--0--0h12/10--10--10--10--10--10--10--10--10--10--10--10--



E|--------------------------
B|--------------------------
G|--------------------------
D|--------------------------
A|--2--3--2--0--5--0--2--3--
E|--------------------------



E|----------------------------------------------------------------------------------------
B|----------------------------------------------------------------------------------------
G|----------------------------------------------------------------------------------------
D|----------------------------------------------------------------------------------------
A|-----------------9--10-----------------5--6-----------------9--10-----------------------
E|--7--0--7--7--7---------3--0--3--3--3--------7--0--7--7--7---------3--0--3--3--3--2--0--



E|-----------------------------------------------------------
B|-----------------------------------------------------------
G|-----------------------------------------------------------
D|-----------------------------------------------------------
A|-----------------------------5--5--5--5--3--3--3--2--2--2--
E|--0--0--0--0--0--0--0--0--0--------------------------------



E|--------------------------------------------------------|--------
B|--------------------------------------------------------|--------
G|--------------------------------------------------------|--------
D|--------------------------------------------------------|--------
A|--7--7--7--7--7--7--7--7--5--5--5--5--3--3--3--2--2--2--|--------
E|--------------------------------------------------------|--0--0--
http://www.guitartabcreator.com
Guitar Tab Creator is intended to store guitar tab created through the tool. It currently does not support in-line text editing. Any text you place in here will be lost. If you need to comment on your tab, please use the "Tab Notes" section located below.