Taken From Me

(/) Slide Up  (\) Slide Down  (h) Hammer On  (p) Pull Off  (b) Bend (r) Release (v) Vibrato

E|--------------------------------------3-----------------------1-------------------------------------
B|-----------------------------------------0--------------3--------3--------------------1-------------
G|--------------0-----------------0-----------0--------2-----2--------2-----------2--------2----------
D|--------2--------2-----------2-----2-----------0--0--------------------0-----2-----2--------2-------
A|-----2-----2--------2--0--3-----------------------------------------------0-------------------------
E|--0--------------------------------------------------------------------------------------------3p0--



E|--------------------------------------------------------------------------------------------------
B|--------------------------------------------------------------------------------------------------
G|--------------0-----------------------0-----------------------0-----------------------0-----------
D|--------4--------4-----4--------5--------5-----5--------7--------7-----7--------7--------7-----7--
A|-----2-----2--------2--------3-----3--------3--------5-----5--------5--------5-----5--------5-----
E|--0-----------------------0-----------------------0-----------------------0-----------------------



E|------------------------------------------------
B|------------------------------------------------
G|------------------------------------------------
D|--2------------5--------3-----------------------
A|--2------------5--------3-----------------------
E|--0------------3--------1--0--0h1--0--0h1p0--0--



E|--------------------
B|--------------------
G|--------------------
D|--2--2--2--2--3--5--
A|--2--2--2--2--3--5--
E|--0--0--0--0--1--3--
http://www.guitartabcreator.com
Guitar Tab Creator is intended to store guitar tab created through the tool. It currently does not support in-line text editing. Any text you place in here will be lost. If you need to comment on your tab, please use the "Tab Notes" section located below.