HIDE & SEEK

(/) Slide Up  (\) Slide Down  (h) Hammer On  (p) Pull Off  (b) Bend (r) Release (v) Vibrato

(W|WW) Whole (H|HH) Half (Q|QQ) Quarter (E|EE) 8th (S|SS) 16th (T|TT) 32nd (X|XX) 64th

t: T T T T T T T T T T T T T T T T T
E|----------------------------------------------------
B|----------------------------------------------------
G|----------------------------------------------------
D|----------------------------------------------------
A|--3h5--5--5--5--5--5--5--5--5--5--5--5--5--5--5--5--
E|----------------------------------------------------


t: T T T T T T T T T T T T T T T T T T T T T T T T T T T T T T
E|-----------------------------------------------------------------------------------------------
B|-----------------------------------------------------------------------------------------------
G|-----------------------------------------------------------------------------------------------
D|-----------------------------------------------------------------------------------------------
A|-----------------------------------------------------------------------------------------------
E|--3--3--3--3--3--3--3--3--3--3--3--3--3--3--3--3--5--5--5--5--5--5--5--5--5--5--5--5--5--5-----


t: T T T T T T T T T T T T T T T T TT TT TT TT TT TT TT TT TT TT TT
E|-------------------------------------------------------------------------------------------------
B|-------------------------------------------------------------------------------------------------
G|-------------------------------------------------------------------------------------------------
D|-------------------------------------------------------------------------------------------------
A|-------------------------------------------------------------------------------------------------
E|--8--8--8--8--8--8--8--8--8--8--8--8--8--8--8--8--10--10--10--10--10--10--10--10--10--10--10-----


t: T T T T T T T T T T T T T T T T T T T T T T
E|------------------------------------------------------------------
B|------------------------------------------------------------------
G|------------------------------------------------------------------
D|--5--5--5--5\1--1--1--1----------------------------------0--3--4--
A|-------------------------0h1--1--1--1--0--2--3--3--3--3-----------
E|------------------------------------------------------------------


t: T T T T T T T T T T T T T T T T T T T T T T T T T T
E|---------------------------------------------------------------------------
B|---------------------------------------------------------------------------
G|---------------------------------3r0---------------------------------------
D|--5--5--5--5\1--1--1--1------------------------------------0--3h5--0--3h5--
A|-------------------------0h1--1-------1--0--2--3--3--3--3------------------
E|---------------------------------------------------------------------------
http://www.guitartabcreator.com
Guitar Tab Creator is intended to store guitar tab created through the tool. It currently does not support in-line text editing. Any text you place in here will be lost. If you need to comment on your tab, please use the "Tab Notes" section located below.