Have No Fear

(/) Slide Up  (\) Slide Down  (h) Hammer On  (p) Pull Off  (b) Bend (r) Release (v) Vibrato


E|----------------------------------------------------------------------------
B|----------------------------------------------------------------------------
G|----------------------------------------------------------------------------
D|----------------------------------------------------------------------------
A|----------------------------------------------------------------------------
E|--------------------------------------------------------3--4----------------



E|--------------------------------
B|--------------------------------
G|--------------------------------
D|---------------------------3p0--
A|------------1----3----3/5-------
E|--3----4------------------------



E|----------------------------------------
B|----------------------------------------
G|----------------------------------------
D|----------------------------------------
A|--------------1--1--1--1--3--3--3--3----
E|--3--3--3--3--------------------------5\



E|--------------------------------------------------------
B|--------------------------------------------------------
G|--------------------------------------------------------
D|--------------------------------------------------------
A|--3--3--3--3--3--3--3--3--8--8--8--8--6--6--6--6--8--6--
E|--------------------------------------------------------



E|-------------------------------------------------------
B|-------------------------------------------------------
G|-----------------------------------------------8/10\8--
D|-------------------------------------------------------
A|--3--3--3--3--3--3--3--3--8--8--8--8--6--6--6----------
E|-------------------------------------------------------



E|-------------------------------------------------
B|-------------------------------------------------
G|-------------------------------------------------
D|-------------------------------------------------
A|--3--3--3--3--3--3--3--3--8--8--8--8--6--6-------
E|--------------------------------------------7\3--



E|--------------------------------------------------------------------------
B|--------------------------------------------------------------------------
G|--------------------------------------8h10p11-----------------------------
D|-----------------------------------------------10--9--8--5h7p8--0--3v--0--
A|--3--3--3--3--3--3--3--3--8--8--8--8--------------------------------------
E|--------------------------------------------------------------------------



E|---------------------------------------------------------------
B|---------------------------------------------------------------
G|---------------------------------------------------------------
D|----------------------6--6--6--6--3--3--3--3/6--5h6--6p5-------
A|--3------3--3----3/5--------------------------------------6\---
E|---------------------------------------------------------------



E|-----------------------------------------------------------
B|-----------------------------------------------------------
G|-----------------------------------------------------------
D|----------------------6--6--6--6--3--3/15--15--15--15--15--
A|--3------3--3----3/5---------------------------------------
E|-----------------------------------------------------------
http://www.guitartabcreator.com
Guitar Tab Creator is intended to store guitar tab created through the tool. It currently does not support in-line text editing. Any text you place in here will be lost. If you need to comment on your tab, please use the "Tab Notes" section located below.