Demon Host

(/) Slide Up  (\) Slide Down  (h) Hammer On  (p) Pull Off  (b) Bend (r) Release (v) Vibrato


E|--------|--------------------------------------------------|-----
B|--------|--------------------------------------------------|-----
G|--------|--------------------------------------------------|-----
D|--------|--------------------------------------------------|-----
A|--12/5--|--5--5--5--5--5--5--5--5--3--3--3--3--3--3--3--3--|-----
E|--------|--------------------------------------------------|-----



E|-------------------------------------------------------------
B|-------------------------------------------------------------
G|----------------------------------------------------3--------
D|-----------------------------------------------4/5-----5--3--
A|--5--5--5--5--5--5--5--5--2--2--2--2--2--2--2----------------
E|-------------------------------------------------------------



E|---------------------------------------
B|---------------------------------------
G|---------------------------------------
D|-------------2--3--5--7--8--8----------
A|--5----5--5--------------------8v--7v--
E|---------------------------------------



E|------------------------------------------------------
B|------------------------------------------------------
G|------------------------------------------------------
D|------------------------------------------------------
A|------------------------------------------------------
E|--5--5--5--5--7--7--7--7--8--8--8--8--10--10--10--10--
http://www.guitartabcreator.com
Guitar Tab Creator is intended to store guitar tab created through the tool. It currently does not support in-line text editing. Any text you place in here will be lost. If you need to comment on your tab, please use the "Tab Notes" section located below.