Blinded

(/) Slide Up  (\) Slide Down  (h) Hammer On  (p) Pull Off  (b) Bend (r) Release (v) Vibrato


E|----------------------------------------------------------
B|----------------------------------------------------------
G|----------------------------------------------------------
D|----------------------------------------------------------
A|--------------------------6--6--6--6--5--5--5--5--6--5----
E|--3--3--3--3--3--3--3--3--------------------------------6\



E|----------------------------------------------------
B|----------------------------------------------------
G|----------------------------------------------------
D|----------------------------------------------------
A|--0--3--0--3--0--3--0--3----------------------------
E|--------------------------4--4--4--4--6--6--6--6----



E|--------------------------------------------------------
B|--------------------------------------------------------
G|--------------------------------------------------------
D|--------------------------------------------------------
A|--3--3--3--3--3--3--3--3--------------------------6--5--
E|--------------------------4--4--4--4--6--6--6--6--------



E|--------------------------------------------------------
B|--------------------------------------------------------
G|--------------------------------------------------8--7--
D|--------------------------6--6--6--6--8--8--8--8--------
A|--3--3--3--3--3--3--3--3--------------------------------
E|--------------------------------------------------------



E|------------------------------------------------------------------
B|------------------------------------------------------------------
G|------------------------------------------------------------------
D|--10--10--10--10--10--10--10--10----------------------------------
A|----------------------------------11--11--11--11--13--13--13--13--
E|------------------------------------------------------------------
http://www.guitartabcreator.com
Guitar Tab Creator is intended to store guitar tab created through the tool. It currently does not support in-line text editing. Any text you place in here will be lost. If you need to comment on your tab, please use the "Tab Notes" section located below.