Autodidactic Pedagogy

(/) Slide Up  (\) Slide Down  (h) Hammer On  (p) Pull Off  (b) Bend (r) Release (v) Vibrato


E|--------12--------12--------12--------12--------12--------12--
B|--------12--------12--------12--------12--------12--------12--
G|--------12--------12--------12--------12--------12--------12--
D|--------------------------------------------------------------
A|------------5--7----------------5--7----------------5--7------
E|--5--7----------------5--7----------------5--7----------------



E|-----0--0--0--------0--
B|-----0--0--0--------0--
G|-----0--0--0--------0--
D|--3--3--3--3--5--5--5--
A|--3--3--3--3--5--5--5--
E|--3--3--3--3--5--5--5--



E|-----------
B|-----------
G|-----------
D|--3--------
A|--3--------
E|--3--------
http://www.guitartabcreator.com
Guitar Tab Creator is intended to store guitar tab created through the tool. It currently does not support in-line text editing. Any text you place in here will be lost. If you need to comment on your tab, please use the "Tab Notes" section located below.