untitled

(/) Slide Up  (\) Slide Down  (h) Hammer On  (p) Pull Off  (b) Bend (r) Release (v) Vibrato
E|---------------------------------------------------------------------------
B|---------------------------------------------------------------------------
G|---------------------------------------------------------------------------
D|-----------------9--------------------------------9-------------------5--4\
A|--------8-----------------9p8p6h8--------8-----------------9p8--------3--2-
E|--6--6-----6--6-----6--6-----------6--6-----6--6-----6--6-------0--0-------



E|---------------------------------------------------------------------------
B|---------------------------------------------------------------------------
G|---------------------------------------------------------------------------
D|-----------------9--------------------------------9------------------------
A|--------8-----------------9p8p6h8--------8-----------------9p8--------5--3\
E|--6--6-----6--6-----6--6-----------6--6-----6--6-----6--6-------0--0--3--1-



E|---------------------------------------------------------------------------
B|---------------------------------------------------------------------------
G|---------------------------------------------------------------------------
D|-----------------9--------------------------------9-------------------5--4\
A|--------8-----------------9p8p6h8--------8-----------------9p8--------3--2-
E|--6--6-----6--6-----6--6-----------6--6-----6--6-----6--6-------0--0-------



E|--------------------------------------------------------------------------------------------------
B|--------------------------------------------------------------------------------------------------
G|--------------------------------------------------------------------------------------------------
D|-----------------9--------------------------------9-----------------------------------------5--4--
A|--------8-----------------9p8p6h8--------8-----------------9p8--------8p7--------6p5--------3--2--
E|--6--6-----6--6-----6--6-----------6--6-----6--6-----6--6-------6--6-------5--5-------3--3--------



E|-----------------
B|-----------------
G|-----------------
D|--------------2--
A|--------------2--
E|--14p13p12h14/0--



E|-------------------------------------------------------------------------------------------
B|-------------------------------------------------------------------------------------------
G|-------------------------------------------------------------------------------------------
D|-----------8-----------7--7-------------------------------------5-----------4/5-----7v-----
A|-----------8-----------7--7--------------9p8p6h8/4--2-----------5-----------4-5-----7------
E|--0--0--0--6--0--0--0--5--5--0--0--0--0-------------0--0--0--0--3--0--0--0--2-3--0--5------



E|-----------------
B|-----------------
G|-----------------
D|--3--3--3--3--2--
A|--3--3--3--3--2--
E|--1--1--1--1--0--



E|------------------------------------------------------------------------
B|------------------------------------------------------------------------
G|------------------------------------------------------------------------
D|------------------------------------------------------------------------
A|--3p0-----3p0-----3\8--8--7--------------2--------5--------4\9p8p6h8\2--
E|--1-0--0--1-0--0--1-6--6--5--0--0--0--0--0--0--0--3--0--0--2---------0--



E|----------------------------------------------------------------------
B|----------------------------------------------------------------------
G|----------------------------------------------------------------------
D|-----------------------------------------------------8-----------7\8--
A|--3p0-----3p0-----3\8--8--7--------------2-----------8-----------7-8--
E|--1-0--0--1-0--0--1-6--6--5--0--0--0--0--0--0--0--0--6--0--0--0--5-6--
http://www.guitartabcreator.com
Guitar Tab Creator is intended to store guitar tab created through the tool. It currently does not support in-line text editing. Any text you place in here will be lost. If you need to comment on your tab, please use the "Tab Notes" section located below.