Slide Away (Gems Part)

Slide Away Acoustic (Gems Electric Part)
Capo 4

Intro / Verses 'Slide in Baby' Part
e|---0------0------0------0---- ---0-----0-----0-----0-----0----0----0----0--
B|--0-0----0-0----0-0----0-0--- --0-0---0-0---0-0---0-0---0-0--0-0--0-0--0-0-
G|---------------2------0------ Repeat for how -2-----0-----2-----0-----2----0----2----2----
D|-2------0-------------------- many times you ---------------------------------------------
A|----------------------------- need to. ---------------------------------------------
E|----------------------------- ---------------------------------------------

Chorus
1 strum for all the chords

G D9 Cadd9 Em D9 Cadd9
e|-3----0----0----0----0----0---
B|-3----3----3----0----3----3--- Repeat twice and on the Cadd9 the second time carry on
G|-0----2----0----0----2----0--- on strumming and then hit a D9 once and then into the solo.
D|-0----x----2----2----x----2---
A|-2----x----3----2----x----3---
E|-3----x----x----0----x----x---

Solo
(Tab for Capo 4)

e|-------0------------------------------------0-0-0-0-----------------------------
B|--------0-----------------------------------0-0-0-0-----------------------------
G|-2b^r----2-0--0h2-0---------0-0h2p0---------0-0-0-0--2b^2r-0-0h2-0--------------
D|--------------------0h2--0h2--------2-0-0h2-2-2-2-2----------------0h2----------
A|------------------------------------------------------------------------2-0-----
E|----------------------------------------------------------------------------3-0-

Solo (Second Part)
(without Capo to make understanding easier)

e|---------------------------------------------------------------------------------------
B|-16--16--------------------------16---16--16-------------------------------------------
G|-18b^18r-16---------------16-18--18b^-18b^18r-16---------------------------------------
D|------------18-------16h18----------------------18-------16----------------------------
A|----------------16h18-------------------------------16h18---18-16--16h18-16-14h16(hold)
E|---------------------------------------------------------------------------------------

Chords for 'Take me there' part

Em Em7 D9 Cadd9
e|-0----0----0----0----
B|-0----0----3----3----
G|-0----0----2----0----
D|-2----0----x----2----
A|-2----2----x----3----
E|-0----0----x----x----

Order of the Song:

Intro
Verse (x2)
'Slide in Baby'
Chorus (x2)
Solo
Verse
'Slide in Baby'
Chorus (x2)
'Take me There'
Solo (while singing 'Slide Away')
Guitar Tab Creator is intended to store guitar tab created through the tool. It currently does not support in-line text editing. Any text you place in here will be lost. If you need to comment on your tab, please use the "Tab Notes" section located below.