Blackout

(/) Slide Up  (\) Slide Down  (h) Hammer On  (p) Pull Off  (b) Bend (r) Release (v) Vibrato

VERSE

E|--------------------------------------------------
B|--------------------------------------------------
G|--------------------------------------------------
D|-----0-----0-----0-----------0-----0--5--5--4----- X4
A|--2-----2-----2-----2--0--2-----2--------------0--
E|--------------------------------------------------



E|--------------------------------------------------
B|--------------------------------------------------
G|--------------------------------------4-----3-----
D|-----0--2--4-----0--2--------0--2--4-----5-----4-- X2
A|--2-----------2--------0--2-----------------------
E|--------------------------------------------------



E|--------------------------
B|--------------------------
G|--------------------------
D|--2--2--3--4-------------- X1
A|--------------2--2--0--2--
E|--------------------------




CHORUS

E|--------------------------------------------------------------------------------------------------
B|--------------------------------------------------------------------------------------------------
G|--------------------------------------------------------------------------------------------------
D|-----------------------------4--5--7-------------------------------------------------------------- X2
A|-----0--2--4-----0--2--0--5--------------4--7--4-----0--2--4-----0--2--0-----------0--2--0--------
E|--2-----------2-----------------------5-----------2-----------2-----------0--2--4-----------4--0--



E|--------------------------
B|--------------------------
G|--------------------------
D|--2--0-------------------- X1
A|--------4--2--0-----------
E|-----------------4--2--0--
http://www.guitartabcreator.com
Guitar Tab Creator is intended to store guitar tab created through the tool. It currently does not support in-line text editing. Any text you place in here will be lost. If you need to comment on your tab, please use the "Tab Notes" section located below.