A New Reckoning

(/) Slide Up  (\) Slide Down  (h) Hammer On  (p) Pull Off  (b) Bend (r) Release (v) Vibrato

E|-3-----3-----3-----3-----
B|---5-6---5-6---5-6---5-6-
G|-------------------------
D|-------------------------
A|-------------------------
E|-------------------------



E|-------------------------
B|-3-----3-----3-----3-----
G|---5-6---5-6---5-6---5-6-
D|-------------------------
A|-------------------------
E|-------------------------



E|-------------------------
B|-------------------------
G|-3-----3-----3-----3-----
D|---5-6---5-6---5-6---5-6-
A|-------------------------
E|-------------------------



E|-------------------------------------------------
B|-------------------------------------------------
G|-3-5-6-4-3-5-3-5-3-5-6-4-3-5-3-5-3-5-6-4-3-5-3-5-
D|-------------------------------------------------
A|-------------------------------------------------
E|-------------------------------------------------



E|-------------------------------------------------
B|-------------------------------------------------
G|-5-7-8-6-5-7-5-7-5-7-8-6-5-7-5-7-5-7-8-6-5-7-8-6-
D|-------------------------------------------------
A|-------------------------------------------------
E|-------------------------------------------------
http://www.guitartabcreator.com
Guitar Tab Creator is intended to store guitar tab created through the tool. It currently does not support in-line text editing. Any text you place in here will be lost. If you need to comment on your tab, please use the "Tab Notes" section located below.