tears dont fall

(/) Slide Up  (\) Slide Down  (h) Hammer On  (p) Pull Off  (b) Bend (r) Release (v) Vibrato

E|---------6-6-6-6-5-5-5-5-6-6-6-6-----8-8-8-8-8-8-8-8-8-8-
B|---------6-6-6-6-6-6-6-6-6-6-6-6-----8-8-8-8-8-8-8-8-8-8-
G|-3-3-3-3-3-3-3-3-3-3-3-3-3-3-3-3-5-5-5-5-5-5-5-5-5-5-5-5-
D|-3-3-3-3-3-3-3-3-3-3-3-3-3-3-3-3-5-5-5-5-5-5-5-5-5-5-5-5-
A|---------------------------------------------------------
E|---------------------------------------------------------



E|---------6-6-6-6-5-5-5-5-6-6-6-6-----8-8-8-8-10-10-10-8-8-8-
B|---------6-6-6-6-6-6-6-6-6-6-6-6-----8-8-8-8-10-10-10-8-8-8-
G|-3-3-3-3-3-3-3-3-3-3-3-3-3-3-3-3-5-5-5-5-5-5-7--7--7--5-5-5-
D|-3-3-3-3-3-3-3-3-3-3-3-3-3-3-3-3-5-5-5-5-5-5-7--7--7--5-5-5-
A|------------------------------------------------------------
E|------------------------------------------------------------
http://www.guitartabcreator.com
Guitar Tab Creator is intended to store guitar tab created through the tool. It currently does not support in-line text editing. Any text you place in here will be lost. If you need to comment on your tab, please use the "Tab Notes" section located below.