Santeria

(/) Slide Up  (\) Slide Down  (h) Hammer On  (p) Pull Off  (b) Bend (r) Release (v) Vibrato

E|-----------------------------------------------------------------------------------------------------
B|-------------------7b7-------------------------------------------------------------------------------
G|-------------5--9-------9--8--8--6--8--6--6p4-----4-------------------------------------------4h5h6--
D|-----5h6--9------------------------------------6-----4b2--4--2-----2-------------------4h5h6---------
A|--7-------------------------------------------------------------4-----4---------2h3h4----------------
E|-------------------------------------------------------------------------2h3h4-----------------------



E|-----------------------------------------------------
B|-----12--14--12--9--9\7------------------------------
G|--5----------------------9--6--9--6\4-----------4----
D|---------------------------------------6--4--6-----6b
A|-----------------------------------------------------
E|-----------------------------------------------------
http://www.guitartabcreator.com
Guitar Tab Creator is intended to store guitar tab created through the tool. It currently does not support in-line text editing. Any text you place in here will be lost. If you need to comment on your tab, please use the "Tab Notes" section located below.