Set In Stone - F.U.D.E.

(/) Slide Up  (\) Slide Down  (h) Hammer On  (p) Pull Off  (b) Bend (r) Release (v) Vibrato

E|-------------------------------------------------------------------------------------------------
B|--------------------------------------------------------------------------9-----7-----5----------
G|--------------------------------------------------------6-----7-----9-----------------------7/9--
D|--------6-----7--6-----6--------6-----7-----6-----7--7-----7-----7-----7-----7-----7-----7-------
A|--7--7-----7--------7-----7--7-----7-----7-----7-------------------------------------------------
E|-------------------------------------------------------------------------------------------------



E|-------------------------------------------------------------------------------------------------
B|--------------------------------------------------------------------------9-----7-----5----------
G|--------------------------------------------------------6-----7-----9-----------------------7/9--
D|--------6-----7--6-----6--------6-----7-----6-----7--7-----7-----7-----7-----7-----7-----7-------
A|--7--7-----7--------7-----7--7-----7-----7-----7-------------------------------------------------
E|-------------------------------------------------------------------------------------------------



E|--------------------------------------------------------------------------------------------------
B|--------------------------------------------------------------------------------------------------
G|--------------------------------------------------6--6--6--6--6--6--6--6--9--9--9--6--6--7--7--6--
D|--6--6--6--6--6--6--6--6--9--9--9--7--7--6--6--6--7--7--7--7--7--7--7--7--7--7--7--7--7--7--7--7--
A|--7--7--7--7--7--7--7--7--7--7--7--7--7--7--7--7--------------------------------------------------
E|--------------------------------------------------------------------------------------------------



E|--------------------------------------------------------------------------------------------------
B|--------------------------------------------------------------------------------------------------
G|--------------------------------------------------6--6--6--6--6--6--6--6--9--9--9--6--6--7--7--6--
D|--6--6--6--6--6--6--6--6--9--9--9--7--7--6--6--6--7--7--7--7--7--7--7--7--7--7--7--7--7--7--7--7--
A|--7--7--7--7--7--7--7--7--7--7--7--7--7--7--7--7--------------------------------------------------
E|--------------------------------------------------------------------------------------------------



E|--------------------------------------------------------------------------------------------------
B|--------------------------------------------------------------------------------------------------
G|--------------------------------------------------6--6--6--6--6--6--6--6--9--9--9--6--6--7--7--6--
D|--6--6--6--6--6--6--6--6--9--9--9--7--7--6--6--6--7--7--7--7--7--7--7--7--7--7--7--7--7--7--7--7--
A|--7--7--7--7--7--7--7--7--7--7--7--7--7--7--7--7--------------------------------------------------
E|--------------------------------------------------------------------------------------------------
http://www.guitartabcreator.com
Guitar Tab Creator is intended to store guitar tab created through the tool. It currently does not support in-line text editing. Any text you place in here will be lost. If you need to comment on your tab, please use the "Tab Notes" section located below.