Boof Nation Presents: Uncle Douggie - Let's get it on

(/) Slide Up  (\) Slide Down  (h) Hammer On  (p) Pull Off  (b) Bend (r) Release (v) Vibrato
E|-------------------------------------------|-------------------------------------------|--
B|-------------------------------------------|-------------------------------------------|--
G|-------------------------------------------|-------------------------------------------|--
D|-------------------------------------------|-------------------------------------------|--
A|-------------------------------------------|-------------------------------------------|--
D|--0--2/3--0--2/3--0--2/3--0--3\2--0--2--0--|--0--2/3--0--2/3--0--2/3--0--3\2--0--2--0--|--



E|-------------------------------------------|---------------------------------------------
B|-------------------------------------------|---------------------------------------------
G|-------------------------------------------|---------------------------------------------
D|-------------------------------------------|---------------------------------------------
A|-------------------------------------------|---------------------------------------------
D|--0--2/3--0--2/3--0--2/3--0--3\2--0--2--0--|--0--2/3--0--2/3--0--2/3--0--3\2--0--2--5\3--



E|-----------------------------------------------------------------|-----------|-----------|---
B|-----------------------------------------------------------------|-----------|-----------|---
G|-----------------------------------------------------------------|-----------|-----------|---
D|-----------------------------------------------------------------|-----------|-----------|---
A|-----------------------------------------------------------------|-----------|-----------|---
D|-0-0-0-0-0-0-0-0-0-0-0-0-0-0-0-0-2-2-2-2-2-2-2-2-1-1-1-1-1-1-1-1-|-0-0-0-0-0-|-0-0-0-0-0-|---



E|---------------------------|---------------|---------------|---------------------------------|-
B|---------------------------|---------------|---------------|---------------------------------|-
G|---------------------------|---------------|---------------|---------------------------------|-
D|---------------------------|---------------|---------------|---------------------------------|-
A|---------------------------|---------------|---------------|---------------------------------|-
D|-2-2-2-2-2-2-2-2-1-1-1-1-1-|-2\1-0-0-0-0-0-|-2\1-0-0-0-0-0-|-2-2-2-2-2-2-2-2-1-1-1-1-1-1-1-1-|-



E|---------------|---------------|---------------------------------|---
B|---------------|---------------|---------------------------------|---
G|---------------|---------------|---------------------------------|---
D|---------------|---------------|---------------------------------|---
A|---------------|---------------|---------------------------------|---
D|-2\1-0-0-0-0-0-|-2\1-0-0-0-0-0-|-2-2-2-2-2-2-2-2-1-1-1-1-1-1-5-3-|---




http://www.guitartabcreator.com
Guitar Tab Creator is intended to store guitar tab created through the tool. It currently does not support in-line text editing. Any text you place in here will be lost. If you need to comment on your tab, please use the "Tab Notes" section located below.