Justin King Knock on Wood ( Guitar)+ (Detailed PERCUSSION IN NOTES) Intro

(/) Slide Up  (\) Slide Down  (h) Hammer On  (p) Pull Off  (b) Bend (r) Release (v) Vibrato

Stave 1:

E|----------------------------------------------------------
B|----------------------------------------------------------
G|----------------------------------------------------------
D|---------4-----------------------------------4------------
A|------------5p0--4h5p0--4h5p0--4h5p0------------5p0--4h5--
E|--4h5h7-------------------------------4h5h7---------------

Stave 2:

E|------------------------------------------------------------
B|------------------------------------------------------------
G|------------------------------------------------------------
D|---------4-------------------------------------4------------
A|------------5p0--4h5p0--4h5p0--4h5/7p0------------5p0--4h5--
E|--4h5h7---------------------------------4h5h7---------------

Stave 3:

E|----------------------------------------
B|----------------------------------------
G|----------------------------------------
D|------------------4---------------------
A|---------------------5p0--4h5p0--4h5p0--
E|-----------4h5h7------------------------

Stave 4:

E|-------------------------------
B|-------------------------------
G|-------------------------------
D|---------4---------------------
A|------------5p0--4h5p0--4h5p0--
E|--4h5h7------------------------

Stave 5:

E|----------------------------------
B|----------------------------------
G|----------------------------------
D|---------4------------------------
A|------------5p0--4h5p0-----4h5p0--
E|--4h5h7---------------------------

Stave 6:

E|--------------------------12--------
B|--------------------------12--------
G|--------------------------12--------
D|---------4------------12------------
A|------------5p0--4h5----------------
E|--4h5h7-----------------------------

http://www.guitartabcreator.com
Guitar Tab Creator is intended to store guitar tab created through the tool. It currently does not support in-line text editing. Any text you place in here will be lost. If you need to comment on your tab, please use the "Tab Notes" section located below.