Holiday, Green Day (Bass)

(/) Slide Up  (\) Slide Down  (h) Hammer On  (p) Pull Off  (b) Bend (r) Release (v) Vibrato

E|--------------------------------------------------------------------------------------------------
B|--------------------------------------------------------------------------------------------------
G|--------------------------------------------------------------------------------------------------
D|--------------------------------------------------------------------------------------------------
A|--8--8--4--4--------6--6--8--8--4--4--------3--3--8--8--4--4--------6--6--3--3--3--3--3--3--3--3--
E|--------------4--4--------------------4--4--------------------4--4--------------------------------



E|-------------------------------------------------------------------
B|-------------------------------------------------------------------
G|-------------------------------------------------------------------
D|-------------------------------------------------------------------
A|---------4-4-4-4---------6-6-6-6---------4-4-4-4---------3-3-3-3-3-
E|-1-1-1-1---------4-4-4-4---------1-1-1-1---------4-4-4-4-----------



E|-----------------------------------------------------------
B|-----------------------------------------------------------
G|-----------------------------------------------------------
D|--------------------------1-----------------------1-----3--
A|-----------------3--4--1-----3-----------------3-----3-----
E|--1--1--3--4--4-----------------1--1--3--4--4--------------
http://www.guitartabcreator.com
Guitar Tab Creator is intended to store guitar tab created through the tool. It currently does not support in-line text editing. Any text you place in here will be lost. If you need to comment on your tab, please use the "Tab Notes" section located below.