RP: Pretender.

(/) Slide Up  (\) Slide Down  (h) Hammer On  (p) Pull Off  (b) Bend (r) Release (v) Vibrato

Reid's Part:Pretender Arranged By Brandon

e|----------------7-------------|---------0------0------0---|
B|------------10-----10---------|--------10-----10-----10---|
G|---------9-------------9------|---------9------9------9---|
D|-----10-------------------10--|--------10-----10-----10---|
A|--0---------------------------|--0----------------0-------|
E|------------------------------|-----7------8--------------|


e|------------------------------|-------------------------------|x3
B|---------------10-------------|------------10------10---------|
G|------------9-----------------|---------9-------9------9------|
D|-------10---------------------|-----10--------------------10--|
A|---9----------------9b--9--8--|-------------------------------|
E|------------------------------|-------------------------------|


{Palm Mute these chords the 4th time round}
e||--0-0---------0-0-0-0-------------|--0-0----------0-0-0-0-----------||
B||--1-1---------1-1-1-1-------------|--1-1----------1-1-1-1-----------||
G||--2-2---------2-2-2-2-------------|--2-2----------2-2-2-2-----------||
D||--2-2---------2-2-2-2-------------|--2-2----------2-2-2-2-----------||
A||--0-0---------0-0-0-0-------------|--0-0----------0-0-0-0-----------||
E||----------------------------------|---------------------------------||

e||----------------------------------|--1-1----------1-1-1-1-----------||
B||--3-3---------3-3-3-3-------------|--1-1----------1-1-1-1-----------||
G||--2-2---------2-2-2-2-------------|--2-2----------2-2-2-2-----------||x4
D||--0-0---------0-0-0-0-------------|--3-3----------3-3-3-3-----------||
A||--0-0---------0-0-0-0-------------|--3-3----------3-3-3-3-----------||
E||--2-2---------2-2-2-2-------------|--1-1----------1-1-1-1-----------||

wait for Brandon's riff then

e||--0-0-0-0-0-0-0-0-0-0-0-0-0-0-0-0-0|0-0-0-0-0-0-0-0-0-0-0-0-0-0-0-0-0-||
B||--1-1-1-1-1-1-1-1-1-1-1-1-1-1-1-1-1|1-1-1-1-1-1-1-1-1-1-1-1-1-1-1-1-1-||
G||--2-2-2-2-2-2-2-2-2-2-2-2-2-2-2-2-2|2-2-2-2-2-2-2-2-2-2-2-2-2-2-2-2-2-||
D||--2-2-2-2-2-2-2-2-2-2-2-2-2-2-2-2-2|2-2-2-2-2-2-2-2-2-2-2-2-2-2-2-2-2-||
A||--0-0-0-0-0-0-0-0-0-0-0-0-0-0-0-0-0|0-0-0-0-0-0-0-0-0-0-0-0-0-0-0-0-0-||
E||-----------------------------------|----------------------------------||


e||--0-0-0-0-0-0-0-0-0-0-0-0-0-0-0-0-|-0-0-0-0-0-0-0-0-0-0-0-0-0-0-0-0-0-||x2
B||--3-3-3-3-3-3-3-3-3-3-3-3-3-3-3-3-|-1-1-1-1-1-1-1-1-1-1-1-1-1-1-1-1-1-||
G||--2-2-2-2-2-2-2-2-2-2-2-2-2-2-2-2-|-0-0-0-0-0-0-0-0-0-0-0-0-0-0-0-0-0-||
D||--0-0-0-0-0-0-0-0-0-0-0-0-0-0-0-0-|-3-3-3-3-3-3-3-3-3-3-3-3-3-3-3-3-3-||
A||--0-0-0-0-0-0-0-0-0-0-0-0-0-0-0-0-|-3-3-3-3-3-3-3-3-3-3-3-3-3-3-3-3-3-||
E||--2-2-2-2-2-2-2-2-2-2-2-2-2-2-2-2-|-1-1-1-1-1-1-1-1-1-1-1-1-1-1-1-1-1-||

Chase's riff then

e||--0-0---------0-0-0-0-------------|--0-0----------0-0-0-0-----------||
B||--1-1---------1-1-1-1-------------|--1-1----------1-1-1-1-----------||
G||--2-2---------2-2-2-2-------------|--2-2----------2-2-2-2-----------||
D||--2-2---------2-2-2-2-------------|--2-2----------2-2-2-2-----------||
A||--0-0---------0-0-0-0-------------|--0-0----------0-0-0-0-----------||
E||----------------------------------|---------------------------------||

e||----------------------------------|--1-1----------1-1-1-1-----------||x2
B||--3-3---------3-3-3-3-------------|--1-1----------1-1-1-1-----------||
G||--2-2---------2-2-2-2-------------|--2-2----------2-2-2-2-----------||
D||--0-0---------0-0-0-0-------------|--3-3----------3-3-3-3-----------||
A||--0-0---------0-0-0-0-------------|--3-3----------3-3-3-3-----------||
E||--2-2---------2-2-2-2-------------|--1-1----------1-1-1-1-----------||

Brandon's riff then...

e||--0-0-0-0-0-0-0-0-0-0-0-0-0-0-0-0-0|0-0-0-0-0-0-0-0-0-0-0-0-0-0-0-0-0-||
B||--1-1-1-1-1-1-1-1-1-1-1-1-1-1-1-1-1|1-1-1-1-1-1-1-1-1-1-1-1-1-1-1-1-1-||
G||--2-2-2-2-2-2-2-2-2-2-2-2-2-2-2-2-2|2-2-2-2-2-2-2-2-2-2-2-2-2-2-2-2-2-||
D||--2-2-2-2-2-2-2-2-2-2-2-2-2-2-2-2-2|2-2-2-2-2-2-2-2-2-2-2-2-2-2-2-2-2-||
A||--0-0-0-0-0-0-0-0-0-0-0-0-0-0-0-0-0|0-0-0-0-0-0-0-0-0-0-0-0-0-0-0-0-0-||
E||-----------------------------------|----------------------------------||


e||--0-0-0-0-0-0-0-0-0-0-0-0-0-0-0-0-|-0-0-0-0-0-0-0-0-0-0-0-0-0-0-0-0-0-||x2
B||--3-3-3-3-3-3-3-3-3-3-3-3-3-3-3-3-|-1-1-1-1-1-1-1-1-1-1-1-1-1-1-1-1-1-||
G||--2-2-2-2-2-2-2-2-2-2-2-2-2-2-2-2-|-0-0-0-0-0-0-0-0-0-0-0-0-0-0-0-0-0-||
D||--0-0-0-0-0-0-0-0-0-0-0-0-0-0-0-0-|-3-3-3-3-3-3-3-3-3-3-3-3-3-3-3-3-3-||
A||--0-0-0-0-0-0-0-0-0-0-0-0-0-0-0-0-|-3-3-3-3-3-3-3-3-3-3-3-3-3-3-3-3-3-||
E||--2-2-2-2-2-2-2-2-2-2-2-2-2-2-2-2-|-1-1-1-1-1-1-1-1-1-1-1-1-1-1-1-1-1-||

Brandon's little riff then wait for chase's riff when song says "mirrored in your stare" then:

e||-----------------------------------|----------------------------------||
B||-----------------------------------|----------------------------------||
G||-----------------------------------|----------------------------------||
D||--10----10-9--X--7--5--X---12----12|10-X--9--10-----------------------||
A||--0--0--0--0--0--0--0--0---0--0--0-|0--0--0--0--0---------------------||
E||-----------------------------------|----------------------------------||

After twice Brandon comes in with his riff then repeat over and over again till chase does his chords 4x then do:

e||----------------7-------------|-----------------------------||
B||------------10-----10---------|--------10-----10-----10-----||
G||---------9-------------9------|---------9------9------9-----||
D||-----10-------------------10--|--------10-----10-----10-----||
A||--0---------------------------|--0----------------0------9--||
E||------------------------------|-----7------8----------------||

e||-----------------------------|------------(0)---------------||x1
B||-------------10--------------|------------10----------------||
G||----------9------------------|---------9--------------------||
D||------10---------------------|-----10-----------------------||
A||---------------(9)-9b--9--8--|------------------------------||
E||-----------------------------|------------------------------||

e||--0-0-0-0-0-0-0-0-0-0-0-0-0-0-0-0-0|0-0-0-0-0-0-0-0-0-0-0-0-0-0-0-0-0-||
B||--1-1-1-1-1-1-1-1-1-1-1-1-1-1-1-1-1|1-1-1-1-1-1-1-1-1-1-1-1-1-1-1-1-1-||
G||--2-2-2-2-2-2-2-2-2-2-2-2-2-2-2-2-2|2-2-2-2-2-2-2-2-2-2-2-2-2-2-2-2-2-||
D||--2-2-2-2-2-2-2-2-2-2-2-2-2-2-2-2-2|2-2-2-2-2-2-2-2-2-2-2-2-2-2-2-2-2-||
A||--0-0-0-0-0-0-0-0-0-0-0-0-0-0-0-0-0|0-0-0-0-0-0-0-0-0-0-0-0-0-0-0-0-0-||
E||-----------------------------------|----------------------------------||


e||--0-0-0-0-0-0-0-0-0-0-0-0-0-0-0-0-|-0-0-0-0-0-0-0-0-0-0-0-0-0-0-0-0-0-||x4
B||--3-3-3-3-3-3-3-3-3-3-3-3-3-3-3-3-|-1-1-1-1-1-1-1-1-1-1-1-1-1-1-1-1-1-||
G||--2-2-2-2-2-2-2-2-2-2-2-2-2-2-2-2-|-0-0-0-0-0-0-0-0-0-0-0-0-0-0-0-0-0-||
D||--0-0-0-0-0-0-0-0-0-0-0-0-0-0-0-0-|-3-3-3-3-3-3-3-3-3-3-3-3-3-3-3-3-3-||
A||--0-0-0-0-0-0-0-0-0-0-0-0-0-0-0-0-|-3-3-3-3-3-3-3-3-3-3-3-3-3-3-3-3-3-||
E||--2-2-2-2-2-2-2-2-2-2-2-2-2-2-2-2-|-1-1-1-1-1-1-1-1-1-1-1-1-1-1-1-1-1-||

wait until Brandon's little riff then:

e||--0-0-0-0-0-0-0-0-0-0-0--||
B||--1-1-1-1-1-1-1-1-1-1-1--||
G||--2-2-2-2-2-2-2-2-2-2-2--|| Strum
D||--2-2-2-2-2-2-2-2-2-2-2--||
A||--0-0-0-0-0-0-0-0-0-0-0--||
E||-------------------------||

then when Brandon goes from high to low twice play this:


e||-0-0----------0-0-0-0-----------||
B||-1-1----------1-1-1-1-----------||
G||-2-2----------2-2-2-2-----------||
D||-2-2----------2-2-2-2-----------||
A||-0-0----------0-0-0-0-----------||
E||--------------------------------||
Guitar Tab Creator is intended to store guitar tab created through the tool. It currently does not support in-line text editing. Any text you place in here will be lost. If you need to comment on your tab, please use the "Tab Notes" section located below.