Chris' part good girl

(/) Slide Up  (\) Slide Down  (h) Hammer On  (p) Pull Off  (b) Bend (r) Release (v) Vibrato



G|--------------------------------------------x2
D|------------------------1-3-3b-1----------
A|--3-----8-6--1-1-3----3----------1-1-1-3---
E|-------------------------------------------


G|------------------------------------x a bunch
D|------------------------------------
A|--8-6----1-1-3--8-6---1-1-3----------
E|-------------------------------------



G|------------------------------------ x1
D|------------------------------------
A|--8-6----1-1-3--8-6---1-1-3-1-0-1-3-3------
E|-------------------------------------


chorus
A|----------6-6-6-6----------------x3
E|--4-4-4-4---------6-6-6-6-8-8-8--

A|------------
E|--4-4-4-4-4-4-4-4-6-6-6-6-6-6-6-6--------------
Guitar Tab Creator is intended to store guitar tab created through the tool. It currently does not support in-line text editing. Any text you place in here will be lost. If you need to comment on your tab, please use the "Tab Notes" section located below.