Bliss

(/) Slide Up  (\) Slide Down  (h) Hammer On  (p) Pull Off  (b) Bend (r) Release (v) Vibrato

G Am Bm C
E|-----0-----0-----0-----0-----
B|-----1-----1-----3-----3-----
G|-----0-----2-----4-----4-----
D|-----0-----2-----4-----2-----
A|-----2-----0-----2-----3-----
E|-----3-----------------------


C
E|--0--
B|--3--
G|--4--
D|--2--
A|--3--
E|-----


Em C Am Bm Bm
E|-----2-----0-----0-----0-----0-----
B|-----0-----3-----1-----3-----3-----
G|-----0-----0-----2-----4-----4-----
D|-----2-----2-----2-----4-----4-----
A|-----2-----3-----0-----2-----2-----
E|-----0-----------------------------


G Am Bm C C
E|-----0-----0-----0-----0-----0-----
B|-----1-----1-----3-----3-----3-----
G|-----0-----2-----4-----4-----4-----
D|-----0-----2-----4-----2-----2-----
A|-----2-----0-----2-----3-----3-----
E|-----3-----------------------------


Em C Am Bm Em C Am Bm E G C
E|--2--0--0--0/0----|----0--0-----0--|--0--0---------
B|--0--3--1--3----0/|----0--0-----0--|--0--0---------
G|--0--0--2--4------|----9--5--2--4--|--9--12--------
D|--2--2--2--4------|----0--0-----0--|--0--0---------
A|--2--3--0--2------|----7--3--0--2--|--7--9---9-----
E|--0---------------|----0--0-----0--|--0--0---0--0--
http://www.guitartabcreator.com
Guitar Tab Creator is intended to store guitar tab created through the tool. It currently does not support in-line text editing. Any text you place in here will be lost. If you need to comment on your tab, please use the "Tab Notes" section located below.