I can't remember(the name to this song)

(/) Slide Up  (\) Slide Down  (h) Hammer On  (p) Pull Off  (b) Bend (r) Release (v) Vibrato

E|-----------------------------------------------------------------------------------
B|-------------12--------------------12--------------------10--12--------------------
G|----------9------9--------------9------9--------------9----------10--9-------------
D|------10------------10------10------------10------10--------------------12--10--9--
A|--12--------------------12--------------------12-----------------------------------
E|-----------------------------------------------------------------------------------



E|--------------------------------------------------------------------
B|-----------------------------------12-------------------------------
G|-------------12-----------------------------------------------------
D|------9--10------10--9------9--10------10--9------9--10--12--10--9--
A|--12--------------------12--------------------12--------------------
E|--------------------------------------------------------------------



E|------------------------------------------------------------------------------------------
B|-------------12--------------------10--------------------12--------------------10---------
G|----------9------9--------------9------9--------------9------9--------------9------9------
D|------10------------10------10------------10------10------------10------10------------10--
A|--12--------------------11--------------------12--------------------11--------------------
E|------------------------------------------------------------------------------------------



E|------------------------------------------------------------------
B|----------------------------------------------12------------------
G|----------17--------------17--------------17------17--------------
D|------14------14------14------14------14--------------14------14--
A|--12--------------12--------------12----------------------12------
E|------------------------------------------------------------------
http://www.guitartabcreator.com
Guitar Tab Creator is intended to store guitar tab created through the tool. It currently does not support in-line text editing. Any text you place in here will be lost. If you need to comment on your tab, please use the "Tab Notes" section located below.