Trust in Jesus

(/) Slide Up  (\) Slide Down  (h) Hammer On  (p) Pull Off  (b) Bend (r) Release (v) Vibrato

E|----0-------------------0---------------------------------------1------------------------
B|---------1-------------------1--------------3------------------------3-------------------
G|--------------2-------------------0--------------4------------------------2--------------
D|-------------------2-------------------2--------------5------------------------3---------
A|-----------------------------------------------------------5-----------------------------
E|-----------------------------------------------------------------------------------------



E|--0-----------0-----------------------1-----------
B|-----1-----------1--------3--------------3--------
G|--------2-----------0--------4--------------2-----
D|-----------2-----------2--------5--------------3--
A|-----------------------------------5--------------
E|--------------------------------------------------
http://www.guitartabcreator.com
Guitar Tab Creator is intended to store guitar tab created through the tool. It currently does not support in-line text editing. Any text you place in here will be lost. If you need to comment on your tab, please use the "Tab Notes" section located below.