Compulsive Liar (Production)

Left

:170bpm:
D|----------------|----------------|----------------|--------------|
A|----------------|----------------|----------------|--------------|
F|----------------|----------------|----------------|--------------|
C|-0------0-0-0-0-|-8------8-8-8-8-|-3~~~~~-3-3-3-3-|-5~~~~~-------|
G|-0------0-0-0-0-|-8------8-8-8-8-|-3~~~~~-3-3-3-3-|-5~~~~~-------|
C|-0------0-0-0-0-|-8------8-8-8-8-|-3~~~~~-3-3-3-3-|-5~~~~~-------|


D||---------------------------------|-----------------------------------|
A||---------------------------------|-----------------------------------|
F||---------------------------------|-----------------------------------|
C||---------------------------------|-----------------10---10---8---8---|
G||-5-----5-----5---8---8---7---7---|-8-----8-----8---------------------|
C||---0-0---0-0---0---0---0---0---0-|---8-8---8-8---8----8----8---8---8-|
. . . . . . . . . . . . . . . . . .

D|---------------------------------|-------------------------------------|
A|---------------------------------|-------------------------------------|
F|---------------------------------|-------------------------------------|
C|-7-----7-----7---8---8---7---7---|-------------------------------------|
G|---------------------------------|-10-----10-----10---8---8---7---7----|
C|---3-3---3-3---3---3---3---3---3-|----5-5----5-5----5---5---5---5---5--|
. . . . . . . . . . . . . . . . . .

D|---------------------------------|-----------------------------------|
A|---------------------------------|-----------------------------------|
F|---------------------------------|-----------------------------------|
C|---------------------------------|-----------------10---10---8---8---|
G|-5-----5-----5---8---8---7---7---|-8-----8-----8---------------------|
C|---0-0---0-0---0---0---0---0---0-|---8-8---8-8---8----8----8---8---8-|
. . . . . . . . . . . . . . . . . .

D|---------------------------------|-------------------------------------||
A|---------------------------------|-------------------------------------||
F|---------------------------------|-------------------------------------||
C|-7-----7-----7---8---8---7---7---|-------------------------------------||
G|---------------------------------|-10-----10-----10---8---8---7---7----||
C|---3-3---3-3---3---3---3---3---3-|----5-5----5-5----5---5---5---5---5--||
. . . . . . . . . . . . . . . . . .
:120bpm:
D|------|-------|--------------------|--------------------|
A|------|-------|---4-----4----------|---4-----4----------|
F|------|-------|---7b----7b---------|---7b----7b---------|
C|-0~~~~|~~~~~~-|-0-----0----0-0-0-0-|-0-----0----0-0-0-0-|
G|-0~~~~|~~~~~~-|-0-----0----0-0-0-0-|-0-----0----0-0-0-0-|
C|-0~~~~|~~~~~~-|-0-----0----0-0-0-0-|-0-----0----1-1-1-1-|
^ ^ . . . . ^ ^ . . . .

D|--------------------|-------------------|
A|---4-----4----------|---4-----4--------o| (4x)
F|---7b----7b---------|---7b----7b--------|
C|-0-----0----0-0-0-0-|-0-----0-----------|
G|-0-----0----0-0-0-0-|-0-----0----------o|
C|-0-----0----0-0-0-0-|-0-----0----1b3r1--|
^ ^ . . . . ^ ^

:140bpm:
D|------|-------|-----------------|-----------------|-----------------|
A|------|-------|-----------------|-----------------|-----------------|
F|------|-------|-----------------|-----------------|-----------------|
C|-0~~~~|~~~~~~-|-0-0-0-0-0-0-0-0-|-8-8-8-8-8-8-8-8-|-3-3-3-3-3-3-3-3-|
G|-0~~~~|~~~~~~-|-0-0-0-0-0-0-0-0-|-8-8-8-8-8-8-8-8-|-3-3-3-3-3-3-3-3-|
C|-0~~~~|~~~~~~-|-0-0-0-0-0-0-0-0-|-8-8-8-8-8-8-8-8-|-3-3-3-3-3-3-3-3-|


D|-----------------|-----------------|-----------------|
A|-----------------|-----------------|-----------------|
F|-----------------|-----------------|-----------------|
C|-5-5-5-5-5-7-7-7-|-0-0-0-0-0-0-0-0-|-8-8-8-8-8-8-8-8-|
G|-5-5-5-5-5-7-7-7-|-0-0-0-0-0-0-0-0-|-8-8-8-8-8-8-8-8-|
C|-5-5-5-5-5-7-7-7-|-0-0-0-0-0-0-0-0-|-8-8-8-8-8-8-8-8-|


D|-----------------|-----------------|
A|-----------------|-----------------|
F|-----------------|-----------------|
C|-3-3-3-3-3-3-3-3-|-5-5-5-5-5-7-7-7-|
G|-3-3-3-3-3-3-3-3-|-5-5-5-5-5-7-7-7-|
C|-3-3-3-3-3-3-3-3-|-5-5-5-5-5-7-7-7-|


D|-----------------|-----------------|-----------------|-----------------|
A|-----------------|-----------------|-----------------|-----------------|
F|-----------------|-----------------|-----------------|-----------------|
C|-0-0-0-0-0-0-0-0-|-8-8-8-8-8-8-8-8-|-3-3-3-3-3-3-3-3-|-5-5-5-5-5-7-7-7-|
G|-0-0-0-0-0-0-0-0-|-8-8-8-8-8-8-8-8-|-3-3-3-3-3-3-3-3-|-5-5-5-5-5-7-7-7-|
C|-0-0-0-0-0-0-0-0-|-8-8-8-8-8-8-8-8-|-3-3-3-3-3-3-3-3-|-5-5-5-5-5-7-7-7-|
|
|
D|-----------------|-----------------|-----------------|-----------------|
A|-6-6-6-------8-8-|-8-5-5-5-5-6-6-6-|-6-6-6-------8-8-|-8-5-5-5-5-6-6-6-|
F|-------5-5-5-----|-----------------|-------5-5-5-----|-----------------|
C|-----------------|-----------------|-----------------|-----------------|
G|-----------------|-----------------|-----------------|-----------------|
C|-----------------|-----------------|-----------------|-----------------|


D|-----------------|-----------------|-----------------|-----------------|
A|-----------------|-----------------|-----------------|-----------------|
F|-----------------|-----------------|-----------------|-----------------|
C|-0-0-0-0-0-0-0-0-|-8-8-8-8-8-8-8-8-|-3-3-3-3-3-3-3-3-|-5-5-5-5-5-7-7-7-|
G|-0-0-0-0-0-0-0-0-|-8-8-8-8-8-8-8-8-|-3-3-3-3-3-3-3-3-|-5-5-5-5-5-7-7-7-|
C|-0-0-0-0-0-0-0-0-|-8-8-8-8-8-8-8-8-|-3-3-3-3-3-3-3-3-|-5-5-5-5-5-7-7-7-|
|
|
D|-----------------|-----------------|-----------------|-----------------|
A|-6-6-6-------8-8-|-8-5-5-5-5-6-6-6-|-6-6-6-6-6-6-6-6-|-5-5-5-5-3~~~~~~-|
F|-------5-5-5-----|-----------------|-----------------|-----------------|
C|-----------------|-----------------|-----------------|-----------------|
G|-----------------|-----------------|-----------------|-----------------|
C|-----------------|-----------------|-----------------|-----------------|


D|--------|--------|--------|-------------------------|
A|--------|--------|--------|-------------------------|
F|--------|--------|--------|------10h12p10p0-8/12\7--|
C|--------|--------|--------|-------------------------|
G|--------|--------|--------|-------------------------|
C|--------|--------|--------|-------------------------|


D|------------------|--------------------|-------------------|---------------------------|
A|------------------|--------------------|-------------------|---------------------------|
F|------------------|--------------------|---------5/8\5-----|---------10h12p10p0-8/12\7-|
C|-0000--0--00--00--|-0000--0-8/12\8-00--|-0000--0-------00--|-0000--0-------------------|
G|-0000--0--00--00--|-0000--0--------00--|-0000--0-------00--|-0000--0-------------------|
C|-0000--0--00--00--|-0000--0--------00--|-0000--0-------00--|-0000--0-------------------|
.... . .. .. .... . .. .... . .. .... .

D|------------------|--------------------|-------------------|---------------------------|
A|------------------|--------------------|-------------------|---------------------------|
F|------------------|--------------------|---------5/8\5-----|---------10h12p10p0-8/12\7-|
C|-0000--0--00--00--|-0000--0-8/12\8-00--|-0000--0-------00--|-0000--0-------------------|
G|-0000--0--00--00--|-0000--0--------00--|-0000--0-------00--|-0000--0-------------------|
C|-0000--0--00--00--|-0000--0--------00--|-0000--0-------00--|-0000--0-------------------|
.... . .. .. .... . .. .... . .. .... .
:120bpm:
D|------------------|------------------|------------------|-------------------------|
A|------------------|------------------|------------------|-------------------------|
F|------------------|------------------|------------------|-------------------------|
C|-0000--0--00--00--|-0000--0--00--00--|-0000--0--00--00--|-0000--0-----------------|
G|-0000--0--00--00--|-0000--0--00--00--|-0000--0--00--00--|-0000--0----4-------5-0--|
C|-0000--0--00--00--|-0000--0--00--00--|-1111--1--11--11--|-1111--1--1---1-0-1------|
.... . .. .. .... . .. .. .... . .. .. .... .

:140bpm:
D|------------------|--------------------|-------------------|---------------------------|
A|------------------|--------------------|-------------------|---------------------------|
F|------------------|--------------------|---------5/8\5-----|---------10h12p10p0-8/12\7-|
C|-0000--0--00--00--|-0000--0-8/12\8-00--|-0000--0-------00--|-0000--0-------------------|
G|-0000--0--00--00--|-0000--0--------00--|-0000--0-------00--|-0000--0-------------------|
C|-0000--0--00--00--|-0000--0--------00--|-0000--0-------00--|-0000--0-------------------|
.... . .. .. .... . .. .... . .. .... .

D|--------|-------------|----------|----------|----------|----------|
A|--------|-------------|----------|----------|----------|----------|
F|--------|----10\9-9\7-|----------|----------|----------|----------|
C|-0~~~~~~|~~~-x--x-x-x-|----------|----------|----------|----------|
G|-0~~~~~~|~~~-8-\7-7\5-|----------|-55555555-|-88888888-|-77777888-|
C|-0~~~~~~|~~~----------|-88888888-|----------|----------|----------|
........ ........ ........ ........

D|----------|----------|----------|----------|
A|----------|----------|----------|----------|
F|----------|----------|----------|----------|
C|----------|----------|----------|----------|
G|----------|-55555555-|-88888888-|-77777888-|
C|-88888888-|----------|----------|----------|


D|----------|----------|----------|------------------|
A|----------|----------|----------|------------------|
F|----------|----------|----------|------------------|
C|-55555555-|-88888888-|-00000000-|-1010101010101010-|
G|-55555555-|-88888888-|-00000000-|-1010101010101010-|
C|-55555555-|-88888888-|-00000000-|-1010101010101010-|
........ ........ ........ . . . . . . . .


D|----------|----------|----------|------------------|
A|----------|----------|----------|------------------|
F|----------|----------|----------|------------------|
C|-55555555-|-88888888-|-00000000-|-1010101010101010-|
G|-55555555-|-88888888-|-00000000-|-1010101010101010-|
C|-55555555-|-88888888-|-00000000-|-1010101010101010-|
........ ........ ^^^^^^^^

D|-----------------|-----------------|-----------------|-----------------|
A|-----------------|-----------------|-----------------|-----------------|
F|-----------------|-----------------|-----------------|-----------------|
C|-0-0-0-0-0-0-0-0-|-8-8-8-8-8-8-8-8-|-3-3-3-3-3-3-3-3-|-5-5-5-5-5-7-7-7-|
G|-0-0-0-0-0-0-0-0-|-8-8-8-8-8-8-8-8-|-3-3-3-3-3-3-3-3-|-5-5-5-5-5-7-7-7-|
C|-0-0-0-0-0-0-0-0-|-8-8-8-8-8-8-8-8-|-3-3-3-3-3-3-3-3-|-5-5-5-5-5-7-7-7-|


D|-----------------|-----------------|-----------------|-----------------|
A|-----------------|-----------------|-----------------|-----------------|
F|-----------------|-----------------|-----------------|-----------------|
C|-0-0-0-0-0-0-0-0-|-8-8-8-8-8-8-8-8-|-3-3-3-3-3-3-3-3-|-5-5-5-5-5-7-7-7-|
G|-0-0-0-0-0-0-0-0-|-8-8-8-8-8-8-8-8-|-3-3-3-3-3-3-3-3-|-5-5-5-5-5-7-7-7-|
C|-0-0-0-0-0-0-0-0-|-8-8-8-8-8-8-8-8-|-3-3-3-3-3-3-3-3-|-5-5-5-5-5-7-7-7-|


D|-----------------|-----------------|-----------------|-----------------|
A|-----------------|-----------------|-----------------|-----------------|
F|-----------------|-----------------|-----------------|-----------------|
C|-0-0-0-0-0-0-0-0-|-8-8-8-8-8-8-8-8-|-3-3-3-3-3-3-3-3-|-5-5-5-5-5-7-7-7-|
G|-0-0-0-0-0-0-0-0-|-8-8-8-8-8-8-8-8-|-3-3-3-3-3-3-3-3-|-5-5-5-5-5-7-7-7-|
C|-0-0-0-0-0-0-0-0-|-8-8-8-8-8-8-8-8-|-3-3-3-3-3-3-3-3-|-5-5-5-5-5-7-7-7-|
|
|
D|-----------------|-----------------|-----------------|-----------------|
A|-6-6-6-------8-8-|-8-5-5-5-5-6-6-6-|-6-6-6-------8-8-|-8-5-5-5-5-6-6-6-|
F|-------5-5-5-----|-----------------|-------5-5-5-----|-----------------|
C|-----------------|-----------------|-----------------|-----------------|
G|-----------------|-----------------|-----------------|-----------------|
C|-----------------|-----------------|-----------------|-----------------|


D|-----------------|-----------------|-----------------|-----------------|
A|-----------------|-----------------|-----------------|-----------------|
F|-----------------|-----------------|-----------------|-----------------|
C|-0-0-0-0-0-0-0-0-|-8-8-8-8-8-8-8-8-|-3-3-3-3-3-3-3-3-|-5-5-5-5-5-7-7-7-|
G|-0-0-0-0-0-0-0-0-|-8-8-8-8-8-8-8-8-|-3-3-3-3-3-3-3-3-|-5-5-5-5-5-7-7-7-|
C|-0-0-0-0-0-0-0-0-|-8-8-8-8-8-8-8-8-|-3-3-3-3-3-3-3-3-|-5-5-5-5-5-7-7-7-|
|
|
D|-----------------|-----------------|-----------------|-----------------|
A|-6-6-6-------8-8-|-8-5-5-5-5-6-6-6-|-6-6-6-6-6-6-6-6-|-5-5-5-5-3~~~~~~-|
F|-------5-5-5-----|-----------------|-----------------|-----------------|
C|-----------------|-----------------|-----------------|-----------------|
G|-----------------|-----------------|-----------------|-----------------|
C|-----------------|-----------------|-----------------|-----------------|


D|------------|------|--------|----------|-----------------|
A|------------|------|--------|----------|-----------------|
F|------------|------|--------|----------|-----------------|
C|------------|-0----|-00---00|0--0--0---|-----------------|
G|------------|-0----|-00---00|0--0--0---|-8p0-0-8p0-0-8p0-|
C|-0>>>\\\~~~-|-0----|-00---00|0--0--0---|-----------------|
^ ^^ ^^ ^ ^ ^

D|------|--------|----------|--------------------|
A|------|--------|----------|--------------------|
F|------|--------|----------|--------------------|
C|-0----|-00---00|0--0--0---|--------------------|
G|-0----|-00---00|0--0--0---|-12p0-0-12p0-0-12p0-|
C|-0----|-00---00|0--0--0---|--------------------|
^ ^^ ^^ ^ ^ ^

D|------|--------|----------|-------------|
A|------|--------|----------|-------------|
F|------|--------|----------|-------------|
C|-0----|-00---00|0--0--0---|-------------|
G|-0----|-00---00|0--0--0---|-------------|
C|-0----|-00---00|0--0--0---|-0>>>>\\\\<<-|
^ ^^ ^^ ^ ^ ^

D|------|--------|----------|-----------------|---------|
A|------|--------|----------|-----------------|---------|
F|------|--------|----------|-----------------|---------|
C|-0----|-00---00|0--0--0---|-----------------|-0-------|
G|-0----|-00---00|0--0--0---|-----------------|-0-------|
C|-0----|-00---00|0--0--0---|-1p0-0-1p0-0-1h4-|-0-------|
^ ^^ ^^ ^ ^ ^


Center
:170bpm:
D||---------------------------------|-----------------------------------|
A||---------------------------------|-----------------------------------|
F||---------------------------------|-----------------------------------|
C||---------------------------------|-----------------10---10---8---8---|
G||-5-----5-----5---8---8---7---7---|-8-----8-----8---------------------|
C||---0-0---0-0---0---0---0---0---0-|---8-8---8-8---8----8----8---8---8-|
. . . . . . . . . . . . . . . . . .

D|---------------------------------|-------------------------------------|
A|---------------------------------|-------------------------------------|
F|---------------------------------|-------------------------------------|
C|-7-----7-----7---8---8---7---7---|-------------------------------------|
G|---------------------------------|-10-----10-----10---8---8---7---7----|
C|---3-3---3-3---3---3---3---3---3-|----5-5----5-5----5---5---5---5---5--|
. . . . . . . . . . . . . . . . . .


D|------------------|------------------|------------------|------------------|
A|------------------|------------------|------------------|------------------|
F|------------------|------------------|------------------|------------------|
C|------------------|------------------|------------------|------------------|
G|------------------|------------------|------------------|------------------|
C|-0000000000000000-|-8888888888888888-|-3333333333333333-|-5555555555555555-|


D|-----------------|-----------------|-----------------|-----------------|
A|-----------------|-----------------|-----------------|-----------------|
F|-----------------|-----------------|-----------------|-----------------|
C|-----------------|-----------------|-----------------|-----------------|
G|-----------------|-----------------|-----------------|-----------------|
C|-0-0-0-0-0-0-0-0-|-8-8-8-8-8-8-8-8-|-3-3-3-3-3-3-3-3-|-5-5-5-5-5-5-5-5-|



:120bpm:
D|------|-------|--------------------|-------------------------|
A|------|-------|---4-----4----------|---4-----4---7--7--7--7--|
F|------|-------|---7b----7b---------|---7b----7b--10-10-10-10-|
C|-0~~~~|~~~~~~-|-0-----0----0-0-0-0-|-0-----0-----------------|
G|-0~~~~|~~~~~~-|-0-----0----0-0-0-0-|-0-----0-----------------|
C|-0~~~~|~~~~~~-|-0-----0----0-0-0-0-|-0-----0-----------------|
^ ^ . . . . ^ ^

D|--------------------|----------------------|
A|---4-----4----------|---4-----4---3-3-3-3-o| (4x)
F|---7b----7b---------|---7b----7b--6-6-6-6--|
C|-0-----0----0-0-0-0-|-0-----0--------------|
G|-0-----0----0-0-0-0-|-0-----0-------------o|
C|-0-----0----0-0-0-0-|-0-----0--------------|


:140bpm:
D|------|-------|-----------------|-----------------|-----------------|
A|------|-------|-----------------|-----------------|-----------------|
F|------|-------|-----------------|-----------------|-----------------|
C|-0~~~~|~~~~~~-|-----------------|-----------------|-----------------|
G|-0~~~~|~~~~~~-|-----------------|-----------------|-----------------|
C|-0~~~~|~~~~~~-|-----------------|-----------------|-----------------|


D|-----------------|-----------------|-----------------|-----------------|
A|-----------------|-----------------|-----------------|-----------------|
F|-----------------|-----------------|-----------------|-----------------|
C|-----------------|-----------------|-----------------|-----------------|
G|-----------------|-----------------|-----------------|-----------------|
C|-----------------|-----------------|-----------------|-----------------|


D|-----------------|-----------------|-----------------|-----------------|
A|-6-6-6-------8-8-|-8-5-5-5-5-6-6-6-|-6-6-6-------8-8-|-8-5-5-5-5-6-6-6-|
F|-------5-5-5-----|-----------------|-------5-5-5-----|-----------------|
C|-----------------|-----------------|-----------------|-----------------|
G|-----------------|-----------------|-----------------|-----------------|
C|-----------------|-----------------|-----------------|-----------------|


D|-----------------|-----------------|-----------------|-----------------|
A|-6-6-6-------8-8-|-8-5-5-5-5-6-6-6-|-6-6-6-6-6-6-6-6-|-5-5-5-5-3~~~~~~-|
F|-------5-5-5-----|-----------------|-----------------|-----------------|
C|-----------------|-----------------|-----------------|-----------------|
G|-----------------|-----------------|-----------------|-----------------|
C|-----------------|-----------------|-----------------|-----------------|



D|-----------------|-----------------|-----------------|-----------------|
A|-----------------|-----------------|-----------------|-----------------|
F|-----------------|-----------------|-----------------|-----------------|
C|-0000--0--00--00-|-0000--0--00--00-|-0000--0--00--00-|-0000--0---------|
G|-0000--0--00--00-|-0000--0--00--00-|-0000--0--00--00-|-0000--0---------|
C|-0000--0--00--00-|-0000--0--00--00-|-0000--0--00--00-|-0000--0---------|


D|-----------------|-----------------|-----------------|-----------------|
A|-----------------|-----------------|-----------------|-----------------|
F|-----------------|-----------------|-----------------|-----------------|
C|-----------------|-----------------|-----------------|-----------------|
G|-----------------|-----------------|-----------------|-----------------|
C|-----------------|-----------------|-----------------|-----------------|



D|-----------------|-----------------|-----------------|-----------------|
A|-----------------|-----------------|-----------------|-----------------|
F|-----------------|-----------------|-----------------|-----------------|
C|-----------------|-----------------|-----------------|-----------------|
G|-----------------|-----------------|-----------------|-----------------|
C|-----------------|-----------------|-----------------|-----------------|


:120bpm:
D|-----------------|-----------------|-----------------|-----------------|
A|-----------------|-----------------|-----------------|-----------------|
F|-----------------|-----------------|-----------------|-----------------|
C|-----------------|-----------------|-----------------|-----------------|
G|-----------------|-----------------|-----------------|-----------------|
C|-----------------|-----------------|-----------------|-----------------|

:140bpm:
D|-----------------|-----------------|-----------------|-----------------|
A|-----------------|-----------------|-----------------|-----------------|
F|-----------------|-----------------|-----------------|-----------------|
C|-----------------|-----------------|-----------------|-----------------|
G|-----------------|-----------------|-----------------|-----------------|
C|-----------------|-----------------|-----------------|-----------------|


D|-----------------|-----------------|-----------------|-----------------|
A|-----------------|-----------------|-----------------|-----------------|
F|-----------------|-----------------|-----------------|-----------------|
C|-----------------|-----------------|-----------------|-----------------|
G|-----------------|-----------------|-----------------|-----------------|
C|-----------------|-----------------|-----------------|-----------------|



D|-----------------|-----------------|-----------------|-----------------|
A|-----------------|-----------------|-----------------|-----------------|
F|-----------------|-----------------|-----------------|-----------------|
C|-----------------|-----------------|-----------------|-----------------|
G|-----------------|-----------------|-----------------|-----------------|
C|-----------------|-----------------|-----------------|-----------------|


D|----------|----------|----------|----------|
A|----------|----------|----------|----------|
F|----------|----------|----------|----------|
C|-77777777-|-88885555-|----------|----------|
G|----------|----------|-77777777-|-55558888-|
C|----------|----------|----------|----------|


D|----------|----------|----------|----------|
A|----------|----------|----------|----------|
F|----------|----------|----------|----------|
C|-77777777-|-88885555-|----------|----------|
G|----------|----------|-77777777-|-55558888-|
C|----------|----------|----------|----------|


D|----------|----------|----------|----------|
A|----------|----------|----------|----------|
F|----------|----------|----------|----------|
C|-77777777-|-88885555-|----------|----------|
G|----------|----------|-77777777-|-55558888-|
C|----------|----------|----------|----------|


D|----------|----------|----------|----------|
A|----------|----------|----------|----------|
F|----------|----------|----------|----------|
C|-77777777-|-88885555-|----------|----------|
G|----------|----------|-77777777-|-55558888-|
C|----------|----------|----------|----------|


D|----------|----------|----------|----------|
A|----------|----------|----------|----------|
F|----------|----------|----------|----------|
C|-77777777-|-88885555-|----------|----------|
G|----------|----------|-77777777-|-55558888-|
C|----------|----------|----------|----------|


D|----------|----------|----------|----------|
A|----------|----------|----------|----------|
F|----------|----------|----------|----------|
C|-77777777-|-88885555-|----------|----------|
G|----------|----------|-77777777-|-55558888-|
C|----------|----------|----------|----------|


D|------------|------|--------|----------|-----------------|
A|------------|------|--------|----------|-----------------|
F|------------|------|--------|----------|-----------------|
C|------------|------|--------|----------|-----------------|
G|------------|------|--------|----------|-----------------|
C|-0>>>\\\~~~-|------|--------|----------|-----------------|


D|------|--------|----------|-----------------|
A|------|--------|----------|-----------------|
F|------|--------|----------|-----------------|
C|------|--------|----------|-----------------|
G|------|--------|----------|-----------------|
C|------|--------|----------|-----------------|


D|------|--------|----------|-------------|
A|------|--------|----------|-------------|
F|------|--------|----------|-------------|
C|------|--------|----------|-------------|
G|------|--------|----------|-------------|
C|------|--------|----------|-0>>>>\\\\<<-|


D|------|--------|----------|-----------------|
A|------|--------|----------|-----------------|
F|------|--------|----------|-----------------|
C|------|--------|----------|-----------------|
G|------|--------|----------|-----------------|
C|------|--------|----------|-----------------|


Right

:170bpm:
D|----------------|----------------|----------------|--------------|
A|----------------|----------------|----------------|--------------|
F|----------------|----------------|----------------|--------------|
C|-0------0-0-0-0-|-8------8-8-8-8-|-3~~~~~-3-3-3-3-|-5~~~~~-------|
G|-0------0-0-0-0-|-8------8-8-8-8-|-3~~~~~-3-3-3-3-|-5~~~~~---3*b-|
C|-0------0-0-0-0-|-8------8-8-8-8-|-3~~~~~-3-3-3-3-|-5~~~~~-------|


D||---------------------------------|-----------------------------------|
A||---------------------------------|-----------------------------------|
F||---------------------------------|-----------------------------------|
C||---------------------------------|-----------------10---10---8---8---|
G||-5-----5-----5---8---8---7---7---|-8-----8-----8---------------------|
C||---0-0---0-0---0---0---0---0---0-|---8-8---8-8---8----8----8---8---8-|
. . . . . . . . . . . . . . . . . .

D|---------------------------------|-------------------------------------|
A|---------------------------------|-------------------------------------|
F|---------------------------------|-------------------------------------|
C|-7-----7-----7---5---5---3---3---|-------------------------------------|
G|---------------------------------|-10-----10-----10---8---8---7---7----|
C|---3-3---3-3---3---3---3---3---3-|----5-5----5-5----5---5---5---5---5--|
. . . . . . . . . . . . . . . . . .

D|---------------------------------|-----------------------------------|
A|---------------------------------|-----------------------------------|
F|---------------------------------|-----------------------------------|
C|---------------------------------|-----------------10---10---8---8---|
G|-5-----5-----5---8---8---7---7---|-8-----8-----8---------------------|
C|---0-0---0-0---0---0---0---0---0-|---8-8---8-8---8----8----8---8---8-|
. . . . . . . . . . . . . . . . . .

D|---------------------------------|-------------------------------------||
A|---------------------------------|-------------------------------------||
F|---------------------------------|-------------------------------------||
C|-7-----7-----7---5---5---3---3---|-------------------------------------||
G|---------------------------------|-10-----10-----10---8---8---7---7----||
C|---3-3---3-3---3---3---3---3---3-|----5-5----5-5----5---5---5---5---5--||
. . . . . . . . . . . . . . . . . .
:120bpm:
D|------|-------|--------------------|--------------------|
A|------|-------|---4-----4----------|---4-----4----------|
F|------|-------|---7b----7b---------|---7b----7b---------|
C|-0~~~~|~~~~~~-|-0-----0----0-0-0-0-|-0-----0----0-0-0-0-|
G|-0~~~~|~~~~~~-|-0-----0----0-0-0-0-|-0-----0----0-0-0-0-|
C|-0~~~~|~~~~~~-|-0-----0----0-0-0-0-|-0-----0----1-1-1-1-|
^ ^ . . . . ^ ^ . . . .

D|--------------------|-------------------|
A|---4-----4----------|---4-----4--------o| (4x)
F|---7b----7b---------|---7b----7b--------|
C|-0-----0----0-0-0-0-|-0-----0-----------|
G|-0-----0----0-0-0-0-|-0-----0----------o|
C|-0-----0----0-0-0-0-|-0-----0----1b3r1--|
^ ^ . . . . ^ ^

:140bpm:
D|------|-------|-----------------|-----------------|-----------------|
A|------|-------|-----------------|-----------------|-----------------|
F|------|-------|-----------------|-----------------|-----------------|
C|-0~~~~|~~~~~~-|-0-0-0-0-0-0-0-0-|-8-8-8-8-8-8-8-8-|-3-3-3-3-3-3-3-3-|
G|-0~~~~|~~~~~~-|-0-0-0-0-0-0-0-0-|-8-8-8-8-8-8-8-8-|-3-3-3-3-3-3-3-3-|
C|-0~~~~|~~~~~~-|-0-0-0-0-0-0-0-0-|-8-8-8-8-8-8-8-8-|-3-3-3-3-3-3-3-3-|


D|-----------------|-----------------|-----------------|
A|-----------------|-----------------|-----------------|
F|-----------------|-----------------|-----------------|
C|-5-5-5-5-5-7-7-7-|-0-0-0-0-0-0-0-0-|-8-8-8-8-8-8-8-8-|
G|-5-5-5-5-5-7-7-7-|-0-0-0-0-0-0-0-0-|-8-8-8-8-8-8-8-8-|
C|-5-5-5-5-5-7-7-7-|-0-0-0-0-0-0-0-0-|-8-8-8-8-8-8-8-8-|


D|-----------------|-----------------|
A|-----------------|-----------------|
F|-----------------|-----------------|
C|-3-3-3-3-3-3-3-3-|-5-5-5-5-5-7-7-7-|
G|-3-3-3-3-3-3-3-3-|-5-5-5-5-5-7-7-7-|
C|-3-3-3-3-3-3-3-3-|-5-5-5-5-5-7-7-7-|


D|-----------------|-----------------|-----------------|-----------------|
A|-----------------|-----------------|-----------------|-----------------|
F|-----------------|-----------------|-----------------|-----------------|
C|-0-0-0-0-0-0-0-0-|-8-8-8-8-8-8-8-8-|-3-3-3-3-3-3-3-3-|-5-5-5-5-5-7-7-7-|
G|-0-0-0-0-0-0-0-0-|-8-8-8-8-8-8-8-8-|-3-3-3-3-3-3-3-3-|-5-5-5-5-5-7-7-7-|
C|-0-0-0-0-0-0-0-0-|-8-8-8-8-8-8-8-8-|-3-3-3-3-3-3-3-3-|-5-5-5-5-5-7-7-7-|
|
|
D|-----------------|-----------------|-----------------|-----------------|
A|-6-6-6-------8-8-|-8-5-5-5-5-6-6-6-|-6-6-6-------8-8-|-8-5-5-5-5-6-6-6-|
F|-------5-5-5-----|-----------------|-------5-5-5-----|-----------------|
C|-----------------|-----------------|-----------------|-----------------|
G|-----------------|-----------------|-----------------|-----------------|
C|-----------------|-----------------|-----------------|-----------------|


D|-----------------|-----------------|-----------------|-----------------|
A|-----------------|-----------------|-----------------|-----------------|
F|-----------------|-----------------|-----------------|-----------------|
C|-0-0-0-0-0-0-0-0-|-8-8-8-8-8-8-8-8-|-3-3-3-3-3-3-3-3-|-5-5-5-5-5-7-7-7-|
G|-0-0-0-0-0-0-0-0-|-8-8-8-8-8-8-8-8-|-3-3-3-3-3-3-3-3-|-5-5-5-5-5-7-7-7-|
C|-0-0-0-0-0-0-0-0-|-8-8-8-8-8-8-8-8-|-3-3-3-3-3-3-3-3-|-5-5-5-5-5-7-7-7-|
|
|
D|-----------------|-----------------|-----------------|-----------------|
A|-6-6-6-------8-8-|-8-5-5-5-5-6-6-6-|-6-6-6-6-6-6-6-6-|-5-5-5-5-3~~~~~~-|
F|-------5-5-5-----|-----------------|-----------------|-----------------|
C|-----------------|-----------------|-----------------|-----------------|
G|-----------------|-----------------|-----------------|-----------------|
C|-----------------|-----------------|-----------------|-----------------|


D|--------|--------|--------|-------------------------|
A|--------|--------|--------|-------------------------|
F|--------|--------|--------|------7h8p7p0-5/8\4--|
C|--------|--------|--------|-------------------------|
G|--------|--------|--------|-------------------------|
C|--------|--------|--------|-------------------------|


D|------------------|--------------------|-------------------|---------------------------|
A|------------------|--------------------|-------------------|---------------------------|
F|------------------|--------------------|---------5/8\5-----|---------10h12p10p0-8/12\7-|
C|-0000--0--00--00--|-0000--0-8/12\8-00--|-0000--0-------00--|-0000--0-------------------|
G|-0000--0--00--00--|-0000--0--------00--|-0000--0-------00--|-0000--0-------------------|
C|-0000--0--00--00--|-0000--0--------00--|-0000--0-------00--|-0000--0-------------------|
.... . .. .. .... . .. .... . .. .... .

D|------------------|--------------------|-------------------|---------------------------|
A|------------------|--------------------|-------------------|---------------------------|
F|------------------|--------------------|---------5/8\5-----|---------10h12p10p0-8/12\7-|
C|-0000--0--00--00--|-0000--0-8/12\8-00--|-0000--0-------00--|-0000--0-------------------|
G|-0000--0--00--00--|-0000--0--------00--|-0000--0-------00--|-0000--0-------------------|
C|-0000--0--00--00--|-0000--0--------00--|-0000--0-------00--|-0000--0-------------------|
.... . .. .. .... . .. .... . .. .... .
:120bpm:
D|------------------|------------------|------------------|-------------------------|
A|------------------|------------------|------------------|-------------------------|
F|------------------|------------------|------------------|-------------------------|
C|-0000--0--00--00--|-0000--0--00--00--|-0000--0--00--00--|-0000--0-----------------|
G|-0000--0--00--00--|-0000--0--00--00--|-0000--0--00--00--|-0000--0----4-------5-0--|
C|-0000--0--00--00--|-0000--0--00--00--|-1111--1--11--11--|-1111--1--1---1-0-1------|
.... . .. .. .... . .. .. .... . .. .. .... .

:140bpm:
D|------------------|--------------------|-------------------|---------------------------|
A|------------------|--------------------|-------------------|---------------------------|
F|------------------|--------------------|---------5/8\5-----|---------10h12p10p0-8/12\7-|
C|-0000--0--00--00--|-0000--0-8/12\8-00--|-0000--0-------00--|-0000--0-------------------|
G|-0000--0--00--00--|-0000--0--------00--|-0000--0-------00--|-0000--0-------------------|
C|-0000--0--00--00--|-0000--0--------00--|-0000--0-------00--|-0000--0-------------------|
.... . .. .. .... . .. .... . .. .... .

D|--------|-------------|----------|----------|----------|----------|
A|--------|-------------|----------|----------|----------|----------|
F|--------|----10\9-9\7-|----------|----------|----------|----------|
C|-0~~~~~~|~~~-x--x-x-x-|----------|----------|----------|----------|
G|-0~~~~~~|~~~-8-\7-7\5-|----------|-55555555-|-88888888-|-77777888-|
C|-0~~~~~~|~~~----------|-88888888-|----------|----------|----------|
........ ........ ........ ........

D|----------|----------|----------|----------|
A|----------|----------|----------|----------|
F|----------|----------|----------|----------|
C|----------|----------|----------|----------|
G|----------|-55555555-|-88888888-|-77777888-|
C|-88888888-|----------|----------|----------|


D|----------|----------|----------|------------------|
A|----------|----------|----------|------------------|
F|----------|----------|----------|------------------|
C|-55555555-|-88888888-|-00000000-|-1010101010101010-|
G|-55555555-|-88888888-|-00000000-|-1010101010101010-|
C|-55555555-|-88888888-|-00000000-|-1010101010101010-|
........ ........ ........ . . . . . . . .


D|----------|----------|----------|------------------|
A|----------|----------|----------|------------------|
F|----------|----------|----------|------------------|
C|-55555555-|-88888888-|-00000000-|-1010101010101010-|
G|-55555555-|-88888888-|-00000000-|-1010101010101010-|
C|-55555555-|-88888888-|-00000000-|-1010101010101010-|
........ ........ ^^^^^^^^

D|-----------------|-----------------|-----------------|-----------------|
A|-----------------|-----------------|-----------------|-----------------|
F|-----------------|-----------------|-----------------|-----------------|
C|-0-0-0-0-0-0-0-0-|-8-8-8-8-8-8-8-8-|-3-3-3-3-3-3-3-3-|-5-5-5-5-5-7-7-7-|
G|-0-0-0-0-0-0-0-0-|-8-8-8-8-8-8-8-8-|-3-3-3-3-3-3-3-3-|-5-5-5-5-5-7-7-7-|
C|-0-0-0-0-0-0-0-0-|-8-8-8-8-8-8-8-8-|-3-3-3-3-3-3-3-3-|-5-5-5-5-5-7-7-7-|


D|-----------------|-----------------|-----------------|-----------------|
A|-----------------|-----------------|-----------------|-----------------|
F|-----------------|-----------------|-----------------|-----------------|
C|-0-0-0-0-0-0-0-0-|-8-8-8-8-8-8-8-8-|-3-3-3-3-3-3-3-3-|-5-5-5-5-5-7-7-7-|
G|-0-0-0-0-0-0-0-0-|-8-8-8-8-8-8-8-8-|-3-3-3-3-3-3-3-3-|-5-5-5-5-5-7-7-7-|
C|-0-0-0-0-0-0-0-0-|-8-8-8-8-8-8-8-8-|-3-3-3-3-3-3-3-3-|-5-5-5-5-5-7-7-7-|


D|-----------------|-----------------|-----------------|-----------------|
A|-----------------|-----------------|-----------------|-----------------|
F|-----------------|-----------------|-----------------|-----------------|
C|-0-0-0-0-0-0-0-0-|-8-8-8-8-8-8-8-8-|-3-3-3-3-3-3-3-3-|-5-5-5-5-5-7-7-7-|
G|-0-0-0-0-0-0-0-0-|-8-8-8-8-8-8-8-8-|-3-3-3-3-3-3-3-3-|-5-5-5-5-5-7-7-7-|
C|-0-0-0-0-0-0-0-0-|-8-8-8-8-8-8-8-8-|-3-3-3-3-3-3-3-3-|-5-5-5-5-5-7-7-7-|
|
|
D|-----------------|-----------------|-----------------|-----------------|
A|-6-6-6-------8-8-|-8-5-5-5-5-6-6-6-|-6-6-6-------8-8-|-8-5-5-5-5-6-6-6-|
F|-------5-5-5-----|-----------------|-------5-5-5-----|-----------------|
C|-----------------|-----------------|-----------------|-----------------|
G|-----------------|-----------------|-----------------|-----------------|
C|-----------------|-----------------|-----------------|-----------------|


D|-----------------|-----------------|-----------------|-----------------|
A|-----------------|-----------------|-----------------|-----------------|
F|-----------------|-----------------|-----------------|-----------------|
C|-0-0-0-0-0-0-0-0-|-8-8-8-8-8-8-8-8-|-3-3-3-3-3-3-3-3-|-5-5-5-5-5-7-7-7-|
G|-0-0-0-0-0-0-0-0-|-8-8-8-8-8-8-8-8-|-3-3-3-3-3-3-3-3-|-5-5-5-5-5-7-7-7-|
C|-0-0-0-0-0-0-0-0-|-8-8-8-8-8-8-8-8-|-3-3-3-3-3-3-3-3-|-5-5-5-5-5-7-7-7-|
|
|
D|-----------------|-----------------|-----------------|-----------------|
A|-6-6-6-------8-8-|-8-5-5-5-5-6-6-6-|-6-6-6-6-6-6-6-6-|-5-5-5-5-3~~~~~~-|
F|-------5-5-5-----|-----------------|-----------------|-----------------|
C|-----------------|-----------------|-----------------|-----------------|
G|-----------------|-----------------|-----------------|-----------------|
C|-----------------|-----------------|-----------------|-----------------|


D|------------|------|--------|----------|-----------------|
A|------------|------|--------|----------|-----------------|
F|------------|------|--------|----------|-----------------|
C|------------|-0----|-00---00|0--0--0---|-----------------|
G|------------|-0----|-00---00|0--0--0---|-8p0-0-8p0-0-8p0-|
C|-0>>>\\\~~~-|-0----|-00---00|0--0--0---|-----------------|
^ ^^ ^^ ^ ^ ^

D|------|--------|----------|--------------------|
A|------|--------|----------|--------------------|
F|------|--------|----------|--------------------|
C|-0----|-00---00|0--0--0---|--------------------|
G|-0----|-00---00|0--0--0---|-12p0-0-12p0-0-12p0-|
C|-0----|-00---00|0--0--0---|--------------------|
^ ^^ ^^ ^ ^ ^

D|------|--------|----------|-------------|
A|------|--------|----------|-------------|
F|------|--------|----------|-------------|
C|-0----|-00---00|0--0--0---|-------------|
G|-0----|-00---00|0--0--0---|-------------|
C|-0----|-00---00|0--0--0---|-0>>>>\\\\<<-|
^ ^^ ^^ ^ ^ ^

D|------|--------|----------|-----------------|---------|
A|------|--------|----------|-----------------|---------|
F|------|--------|----------|-----------------|---------|
C|-0----|-00---00|0--0--0---|-----------------|-0-------|
G|-0----|-00---00|0--0--0---|-----------------|-0-------|
C|-0----|-00---00|0--0--0---|-1p0-0-1p0-0-1h4-|-0-------|
Guitar Tab Creator is intended to store guitar tab created through the tool. It currently does not support in-line text editing. Any text you place in here will be lost. If you need to comment on your tab, please use the "Tab Notes" section located below.