summer day

(/) Slide Up  (\) Slide Down  (h) Hammer On  (p) Pull Off  (b) Bend (r) Release (v) Vibrato


E|------------------------------------------------------------
B|------------------------------------------------------------
G|-----------------------------------------------4--5---------
D|-----10--9--7v--5--7--5------------------5--4--------5--4v--
A|-------------------------5--7v-----5--7---------------------
E|--0-----------------------------0---------------------------



E|---------------------------------------------------------------------------------------------------
B|---------------------------------------------------------------------------------------------------
G|-----7-----7-----9-----9-----5-----5-----7-----7-----3-----3-----5-----5-----2-----2-----3-----3v--
D|--0-----0-----0-----0-----0-----0-----0-----0-----0-----0-----0-----0-----0-----0-----0-----0------
A|---------------------------------------------------------------------------------------------------
E|---------------------------------------------------------------------------------------------------
http://www.guitartabcreator.com
Guitar Tab Creator is intended to store guitar tab created through the tool. It currently does not support in-line text editing. Any text you place in here will be lost. If you need to comment on your tab, please use the "Tab Notes" section located below.