darkened days

(/) Slide Up  (\) Slide Down  (h) Hammer On  (p) Pull Off  (b) Bend (r) Release (v) Vibrato


E|---------------------------------------------------------
B|---------------------------------------------------------
G|---------------------------------------------------------
D|--------9--10v-------------------7--9--10------------7v--
A|-----7-------------10--9v-----7------------10--9--7------
E|--0-------------0----------0-----------------------------



E|---------------------------------------------------------
B|---------------------------------------------------------
G|---------------------------------------------------------
D|--7v--9v-------------9--7--5v------------------------4v--
A|----------9v--7v------------------9--7--5v-----7--5------
E|------------------0------------0------------7------------
http://www.guitartabcreator.com
Guitar Tab Creator is intended to store guitar tab created through the tool. It currently does not support in-line text editing. Any text you place in here will be lost. If you need to comment on your tab, please use the "Tab Notes" section located below.