song

(/) Slide Up  (\) Slide Down  (h) Hammer On  (p) Pull Off  (b) Bend (r) Release (v) Vibrato


E|-------------------------------------
B|-------------------------------------
G|---------------------5---------------
D|-----7-----5--3h5/7-----7--5h7p5-----
A|--5-----3-------------------------8--
E|-------------------------------------



E|-----------------------------------------------------------------
B|-----------------------------------------------------------------
G|--7--5-------------------------------------7-------9-------------
D|--7--5-------3--5/7--5----------7----------7-------9----------7--
A|--5--3--3h5-------------8p5-----7-------5--5--5/7--7--7p5-----7--
E|-----------------------------8--5--5h8---------------------8--5--
http://www.guitartabcreator.com
Guitar Tab Creator is intended to store guitar tab created through the tool. It currently does not support in-line text editing. Any text you place in here will be lost. If you need to comment on your tab, please use the "Tab Notes" section located below.