solo to rush hour

(/) Slide Up  (\) Slide Down  (h) Hammer On  (p) Pull Off  (b) Bend (r) Release (v) Vibrato


E|--12--10---------------10--10/12--10--5h8p5-------------------12/15--15h17p15--
B|----------10--8--8h10------------------------8--5------------------------------
G|---------------------------------------------------7b8--5----------------------
D|-----------------------------------------------------------7-------------------
A|-------------------------------------------------------------------------------
E|-------------------------------------------------------------------------------



E|--------------------8h10/12--10h12p10-----------------------
B|--17\15--13--8--10---------------------13-------------------
G|-------------------------------------------7b8--5-----------
D|---------------------------------------------------7--5--7--
A|------------------------------------------------------------
E|------------------------------------------------------------
http://www.guitartabcreator.com
Guitar Tab Creator is intended to store guitar tab created through the tool. It currently does not support in-line text editing. Any text you place in here will be lost. If you need to comment on your tab, please use the "Tab Notes" section located below.