solo to 28,800

(/) Slide Up  (\) Slide Down  (h) Hammer On  (p) Pull Off  (b) Bend (r) Release (v) Vibrato


E|--12--12--10-----------------13/15--15--13------13--13h15p13------
B|--------------13--10--10h13-----------------15----------------15--
G|------------------------------------------------------------------
D|------------------------------------------------------------------
A|------------------------------------------------------------------
E|------------------------------------------------------------------



E|--5-----5--5h8p5-----5--8/10--8------8--8h10p8------10/12--
B|-----8------------8--------------10-------------10---------
G|-----------------------------------------------------------
D|-----------------------------------------------------------
A|-----------------------------------------------------------
E|-----------------------------------------------------------
http://www.guitartabcreator.com
Guitar Tab Creator is intended to store guitar tab created through the tool. It currently does not support in-line text editing. Any text you place in here will be lost. If you need to comment on your tab, please use the "Tab Notes" section located below.