home again intro

(/) Slide Up  (\) Slide Down  (h) Hammer On  (p) Pull Off  (b) Bend (r) Release (v) Vibrato


E|----------------------------------------------
B|--10--9--7--5--5h7p5------------5-----7--7/9--
G|----------------------6--4h6p4-----6----------
D|----------------------------------------------
A|----------------------------------------------
E|----------------------------------------------



E|---------------7h9p7-----9/10--9--7------
B|--10--9--7--5---------9--------------10--
G|-----------------------------------------
D|-----------------------------------------
A|-----------------------------------------
E|-----------------------------------------



E|--7--9--10--9--7---------------------------
B|------------------10--9--7--9--9h10--9--7--
G|-------------------------------------------
D|-------------------------------------------
A|-------------------------------------------
E|-------------------------------------------
http://www.guitartabcreator.com
Guitar Tab Creator is intended to store guitar tab created through the tool. It currently does not support in-line text editing. Any text you place in here will be lost. If you need to comment on your tab, please use the "Tab Notes" section located below.