Sobre o mesmo chão - Palavrantiga

[code]
(/) Slide Up (\) Slide Down (h) Hammer On (p) Pull Off (b) Bend (r) Release (v) Vibrato


E|------------------------
B|-----8-----11-----6-----
G|-----7-----10-----5-----
D|-----5-----8------3-----
A|------------------------
E|-----7-----10-----5-----



E|--------------------------
B|-----13-----15-----16-----
G|-----12-----14-----15-----
D|-----10-----12-----13-----
A|--------------------------
E|-----12-----14-----15-----



E|-----6-------------------------
B|-----------7-----------7/9-----
G|-----------------8-------------
D|-------------------------------
A|-------------------------------
E|-------------------------------
[/code]
[url]http://www.guitartabcreator.com[/url]
Guitar Tab Creator is intended to store guitar tab created through the tool. It currently does not support in-line text editing. Any text you place in here will be lost. If you need to comment on your tab, please use the "Tab Notes" section located below.