09 Peristalsis

(/) Slide Up  (\) Slide Down  (h) Hammer On  (p) Pull Off  (b) Bend (r) Release (v) Vibrato
E|-----------------------------------------------------------------------------
B|-----------------------------------------------------------------------------
G|---------------------------------------5-------------------------------------
D|-------------5-7-5\2-------------5-5/7---------------5-7-5\2---------------5-
A|-------3-5/7---------------3-5/7---------------3-5/7---------------3h5-5/7-5-
E|-5-3-5---------------5-3-5---------------5-3-5---------------5-3-5-----------



E|-----------------------------------------------------------------------------------------8-------
B|---------8-----8-----7-6-5---------8-----7-----6-----5---5---------8---8---7-6-5-----------5-----
G|-----5-----5-----5-------------5-----5-----5-----5-------------5---------------------5-------5---
D|-5/7---7-----7-----7-------5/7---7-----7-----7-----7---7---5/7---7---7---7-------5/7---7---------
A|-------------------------------------------------------------------------------------------------
E|-------------------------------------------------------------------------------------------------



E|---------5-------8-------7---------------5-------8-------7h8p7-5---
B|-------5---5-------5-------5-----------5---5-------5-------------8-
G|-----5-------5-------5-------5-------5-------5-------5-------------
D|-5/7-----------7-------7-------7-5/7-----------7-------7-----------
A|-------------------------------------------------------------------
E|-------------------------------------------------------------------



E|---------5-5-------8-------7---------------5-------7-
B|-------5-----5-------5-------5-----------5---5-----5-
G|-----5---------5-------5-------5-------5-------5---5-
D|-5/7-------------7-------7-------7-5/7-----------7-7-
A|-----------------------------------------------------
E|-----------------------------------------------------



E|---------
B|-5-5-5---
G|-5-5-5---
D|-7-7-7---
A|---------
E|---------



E|------------------------------------
B|-5-5-5-5--5-5-5-5--5-5-5-5--3-3-3-3-
G|-5-5-5-5--5-5-5-5--5-5-5-5--4-4-4-4-
D|-7-7-7-7--7-7-7-7--7-7-7-7--5-5-5-5-
A|------------------------------------
E|------------------------------------



E|------------------------------------------------------------------------------------------5---------------------------
B|-------------8----------8-----------------8----------------8---------------------8---------------8--------8-----------
G|-------5----------5-----------------5--------5----------5------------------5--------5---------------5--------5--------
D|--5/7-----7----------7---------5/7-----7--------7----7----------------5/7-----7--------7---------------7--------7--7--
A|----------------------------------------------------------------------------------------------------------------------
E|----------------------------------------------------------------------------------------------------------------------



E|---------------5-------------------------------------------------
B|---------8-----------8---------------------8p5-------3h5p3-3-----
G|-----5-----5-----5-----5---------------5-------5-----------------
D|-5/7---7-----7-----7-----7-7-5-----5/7---7-------7-5---------5/7-
A|-----------------------------------------------------------------
E|-----------------------------------------------------------------



E|-------------------------------------------------------
B|-------------------------------------------------------
G|-------------------------------------------------------
D|-------------5-7---------------------5-7---------------
A|-7-7-------------3/5-3---3-5---7---------3/5-3-0---3-5-
E|-------------------------------------------------------



E|-----------------------------------------------------------
B|---------------------------------------------10---8--------
G|------------------------------------4---9-----------9----7-
D|-----------5-7----------------5-5h7---5---10----9-----10---
A|-7-------------3/5-3-0----5/7------------------------------
E|-----------------------------------------------------------



E|------------------------------------------------------
B|----------------------8/10-8----------------------5---
G|-7/9-9-9-9----7/9-9-9-----------7/9-9-9-9--7/9-9--5---
D|------------------------------------------------------
A|------------------------------------------------------
E|------------------------------------------------------



E|------8----10--------8----8\7-----------8----10---10/12-10-8----8-------
B|-8/10---10------8/10---10-----8----8/10---10-----------------12---12\10-
G|------------------------------------------------------------------------
D|------------------------------------------------------------------------
A|------------------------------------------------------------------------
E|------------------------------------------------------------------------



E|-5h8-7p5-5h8-7p5-5h8-7p5-5h8-7p5-5h8-7p5----8----7\5-3-
B|-------------------------------------------------------
G|-------------------------------------------------------
D|-------------------------------------------------------
A|-------------------------------------------------------
E|-------------------------------------------------------



E|----------------------------------------------------------------
B|--5-------------------------5-----------------------------------
G|-----7-----------------------------7----------------------------
D|----------7-------------------------------------7---------------
A|-----------------0-------------------------------------------0--
E|----------------------------------------------------------------
http://www.guitartabcreator.com
Guitar Tab Creator is intended to store guitar tab created through the tool. It currently does not support in-line text editing. Any text you place in here will be lost. If you need to comment on your tab, please use the "Tab Notes" section located below.