08 Senescence Verse

(/) Slide Up  (\) Slide Down  (h) Hammer On  (p) Pull Off  (b) Bend (r) Release (v) Vibrato

E|--------------10p7-----------------------------10p7--------------
B|--------7----------7---10p7--------------7----------7---10p7-----
G|------7---7----------7------7----------7---7----------7------7---
D|-7/9--------9-----------------9---7/9--------9-----------------9-
A|-----------------------------------------------------------------
E|-----------------------------------------------------------------



E|------------7p5---------------------------------------
B|------5---------5---7p5---------------5-----7p5-----5-
G|----6---6---------6-----6-----------6---6-------6---6-
D|-7--------7---------------7------7--------7-------7-7-
A|------------------------------------------------------
E|------------------------------------------------------



E|-----------------------------------------------------------------
B|--------7-----10p7------------------------7-----10p7-------------
G|------7---7--------7---9p7-7------------7---7--------7---9p7-7---
D|-7/9--------9--------9-------9-----7/9--------9--------9-------9-
A|-----------------------------------------------------------------
E|-----------------------------------------------------------------



E|----------------------------------------------------------------------7----7--7--
B|----------5----------7--10--7\5-------------------5----------5h7p5----5----5--5--
G|-------6-----6--7/9--------------6-------------6-----6--6p7-----------6----6--6--
D|--7------------------------------7----------7-------------------------7----7--7--
A|---------------------------------------------------------------------------------
E|---------------------------------------------------------------------------------
http://www.guitartabcreator.com
Guitar Tab Creator is intended to store guitar tab created through the tool. It currently does not support in-line text editing. Any text you place in here will be lost. If you need to comment on your tab, please use the "Tab Notes" section located below.