08 Senescence PT2

(/) Slide Up  (\) Slide Down  (h) Hammer On  (p) Pull Off  (b) Bend (r) Release (v) Vibrato

E|---------7--9--12--10--9--7-----------7--9--7---------------------7--9----10--9--7--9------------7--9--9--7-----------------
B|--7--10------------------------7--10-----------10--7--5--7----10-----------------------10----10--------------10--7--7\5-----
G|-------------------------------------------------------------------------------------------------------------------------7--
D|----------------------------------------------------------------------------------------------------------------------------
A|----------------------------------------------------------------------------------------------------------------------------
E|----------------------------------------------------------------------------------------------------------------------------



E|----------------7---------------7-9h10p9----7---------------------------7/9-7-----7/9-
B|-------7---10-7--------7---10-7----------10---7--10-----------------------------------
G|---------7---------------7---------------------------7-7-7-7-7--9-7-7-9-------7-9-----
D|-7-7h9-------------7h9----------------------------------------------------------------
A|--------------------------------------------------------------------------------------
E|--------------------------------------------------------------------------------------



E|--10--10p9p7------7-----------------------------------4-----------------------------------------------------------
B|--------------10-----7--7--10--7-----7----10p7--5--5-----3--2h3p2-----2-------------------------------------------
G|----------------------------------9--------------------------------4-----1----2--1--0-----2--1--0-----------------
D|---------------------------------------------------------------------------------------4-----------4--2--0--------
A|------------------------------------------------------------------------------------------------------------4--5--
E|------------------------------------------------------------------------------------------------------------------
http://www.guitartabcreator.com
Guitar Tab Creator is intended to store guitar tab created through the tool. It currently does not support in-line text editing. Any text you place in here will be lost. If you need to comment on your tab, please use the "Tab Notes" section located below.