08 Senescence Intro

(/) Slide Up  (\) Slide Down  (h) Hammer On  (p) Pull Off  (b) Bend (r) Release (v) Vibrato

E|---------------------7----------------------------7------
B|--------7-----10-------10------------7-----10-------10---
G|------7---7------7--------7--------7---7------7--------7-
D|-7/9--------9------9----------7/9--------9------9--------
A|---------------------------------------------------------
E|---------------------------------------------------------



E|--------------------------------------------------
B|------5-----7p5-----5----------5-----5-----5------
G|----6---6-------6---6--------6---6-----6-----6----
D|-7--------7-------7-7-7----7-------7-----7------7-
A|--------------------------------------------------
E|--------------------------------------------------



E|---------------------7-------------------------------7------
B|--------7-----10-------10-------------7-----10p7-------10---
G|------7---7------7--------7---------7---7--------7--------7-
D|-7/9--------9------9-----------7/9--------9--------9--------
A|------------------------------------------------------------
E|------------------------------------------------------------



E|--------------------------------------------------
B|------5-----7p5-------------------5-----7p5-----5-
G|----6---6-------6---6h7--6------6---6-------6---6-
D|-7--------7-------7------7----7-------7-------7-7-
A|--------------------------------------------------
E|--------------------------------------------------



E|-----------------------7--7-7-------------------------7--7-7-
B|-------7-----10p7------7--7-7----------7-----10p7-----7--7-7-
G|-----7---7--------7----7--7-7--------7---7--------7---7--7-7-
D|-7/9-------9--------9------------7/9-------9--------9--------
A|-------------------------------------------------------------
E|-------------------------------------------------------------



E|-------------------------------------------------------------------
B|--------5--------7p5------------------------5--------7p5--------5--
G|-----6-----6----------6-----6h7--6-------6-----6----------6-----6--
D|--7-----------7----------7-------7----7-----------7----------7--7--
A|-------------------------------------------------------------------
E|-------------------------------------------------------------------
http://www.guitartabcreator.com
Guitar Tab Creator is intended to store guitar tab created through the tool. It currently does not support in-line text editing. Any text you place in here will be lost. If you need to comment on your tab, please use the "Tab Notes" section located below.