08 Senescence Chorus

(/) Slide Up  (\) Slide Down  (h) Hammer On  (p) Pull Off  (b) Bend (r) Release (v) Vibrato

E|--7--9----9----9------9--12----12----9------------10--10------7----7--7--
B|--5--7----7----7------7--10----10----7------7--7--7---7-------5----5--5--
G|--6--7----7----7------7--11----11----7------7--7--7---7-------6----6--6--
D|--7--9----9----9------9--12----12----9------0--0--0---0-------7----7--7--
A|-------------------------------------------------------------------------
E|-------------------------------------------------------------------------



E|--------------------------------------
B|--7--7--7--7--------------5--5--9--9--
G|--7--7--7--7--------------6--6--------
D|--9--9--9--9--------------7--7--------
A|--------------------------------------
E|--------------------------------------
http://www.guitartabcreator.com
Guitar Tab Creator is intended to store guitar tab created through the tool. It currently does not support in-line text editing. Any text you place in here will be lost. If you need to comment on your tab, please use the "Tab Notes" section located below.