05 Equilibrial Equinox

(/) Slide Up  (\) Slide Down  (h) Hammer On  (p) Pull Off  (b) Bend (r) Release (v) Vibrato


E|---12p0-12p0-10p0---10-10-10p0-15-12----12-15-12-17-17-17p15-
B|-------------------------------------15----------------------
G|-9----------------9------------------------------------------
D|-------------------------------------------------------------
A|-------------------------------------------------------------
E|-------------------------------------------------------------



E|-------------15----------------
B|-14-15-15h17----17-15----15h17-
G|----------------------16-------
D|-------------------------------
A|-------------------------------
E|-------------------------------



E|---12p0-12p10-7---7-10/12-15---10p0-10h12-10---10-10\7-7-
B|---------------------------------------------------------
G|-9--------------9------------9---------------9-----------
D|---------------------------------------------------------
A|---------------------------------------------------------
E|---------------------------------------------------------



E|-17-15----------
B|-------17-15h17-
G|----------------
D|----------------
A|----------------
E|----------------



E|--------------------------------------------------------------
B|-------7-------7-------7h8-7---------7-------7-------10p8-----
G|---7-------7-------7---------7---7-------7-------7--------9-9-
D|-9---9---9---9---9---9---------9---9---9---9---9---9----------
A|--------------------------------------------------------------
E|--------------------------------------------------------------



E|-------------------------------------------------------------------7--------------------------------------
B|-------7-------7-7-7-------------7---8---7---10---8---7---8---10-----------10---8---7---8---------------8-
G|---7-------7---------7---7---7-----------------------------------------7--------------------9---7---9-----
D|-9---9---9---9---------9---9---9---9---9---9----9---9---9---9----9---9---9----9---9---9---9---9---9---9---
A|----------------------------------------------------------------------------------------------------------
E|----------------------------------------------------------------------------------------------------------
http://www.guitartabcreator.com
Guitar Tab Creator is intended to store guitar tab created through the tool. It currently does not support in-line text editing. Any text you place in here will be lost. If you need to comment on your tab, please use the "Tab Notes" section located below.