04 Isthmus Halcyon

(/) Slide Up  (\) Slide Down  (h) Hammer On  (p) Pull Off  (b) Bend (r) Release (v) Vibrato

E|-------------------------------------------------------------------5-------8-8-10-8--
B|-----------------------------------------------------------------5---5---5-5-5-5--8--
G|---------------------------------------------------------------5-------5---5-5-5--9--
D|-5h6-5h6-3h5-3------------------5h6-5h6-5-3------------3h5-5/7--------------------10-
A|---------------3-3-3-3h5-5-5----------------3-3-3-3--5-------------------------------
E|-------------------------------------------------------------------------------------



E|--------------------------------------------------------------------------
B|-----------------------------5h6-5----------------------------------------
G|-------------------------5-7-------5---7----------------------------------
D|----------------3------7-------------7---7--------------------------------
A|-----5----3p0-3------5---------------------8-7\5--------------------------
E|--------------------------------------------------------------------------



E|-----
B|-----
G|-----
D|-----
A|-5-2-
E|-----



E|-----------------------------8----12-10h12----------------12-13-----13-13-13-15-15-
B|------------------5---6-8/10---10----------13-------13-15--------------------------
G|-------------5------7-------------------------12-14--------------------------------
D|-------3-5/7---7-------------------------------------------------------------------
A|-5-3h5-----------------------------------------------------------------------------
E|-----------------------------------------------------------------------------------



E|--17p15p13------15p13p12------12---------------------13--13--13--13--13--13--13--12--10--
B|--------------------------15------13--10--13/15------------------------------------------
G|-----------------------------------------------------------------------------------------
D|-----------------------------------------------------------------------------------------
A|-----------------------------------------------------------------------------------------
E|-----------------------------------------------------------------------------------------
http://www.guitartabcreator.com
Guitar Tab Creator is intended to store guitar tab created through the tool. It currently does not support in-line text editing. Any text you place in here will be lost. If you need to comment on your tab, please use the "Tab Notes" section located below.