02 Mephitic Myopi

(/) Slide Up  (\) Slide Down  (h) Hammer On  (p) Pull Off  (b) Bend (r) Release (v) Vibrato
E|---------------5----------------------------------5---------------5h7-
B|-------8---5h8------------8---------------8---5h8---------8---5h8-----
G|-----5---7--------------5---------------5---7-----------5---7---------
D|-5h7----------------5h7-------------5h7-------------5h7---------------
A|----------------------------------------------------------------------
E|----------------------------------------------------------------------



E|-----------------------------5-----------------
B|---0---1---3---5---7---8-5-8---8-5-8---5-------
G|-0---2---4---5---7-------------------7---------
D|-----------------------------------------------
A|-----------------------------------------------
E|-----------------------------------------------



E|-----5-5-----------------5-5-----------
B|-5-8-----8-5---5-8---5-8-----8-5-8-5---
G|-------------7-----------------------7-
D|---------------------------------------
A|---------------------------------------
E|---------------------------------------



E|---------------------------------------------------------------------------------------------------------------------------
B|--3--3p1-----1------------------3--3p1-----1-------------------------------3p1-----1---------------------------------------
G|----------2-----2--0-----0h2------------2-----2--0--0--------0h2--------2-------2-----2p0-----0h2--2--2--------------------
D|----------------------2--------------------------------2--2--------------------------------2-------------------------------
A|---------------------------------------------------------------------------------------------------------------------------
E|---------------------------------------------------------------------------------------------------------------------------



E|-------------------------------------------------------------
B|-------------------------------------------------------------
G|-----------5-----------5--------------------5--5h7--7--7--7--
D|--5--6--7-----5--6--7-----7--5-----5--6--7-------------------
A|--------------------------------7----------------------------
E|-------------------------------------------------------------



E|--------------------------------------
B|--------------------------------------
G|--7--7--5--5--2--7--7--5--5-----------
D|--7--7--5--5--2--7--7--5--5--5--5--5--
A|-----------------------------7--7--7--
E|--------------------------------------
http://www.guitartabcreator.com
Guitar Tab Creator is intended to store guitar tab created through the tool. It currently does not support in-line text editing. Any text you place in here will be lost. If you need to comment on your tab, please use the "Tab Notes" section located below.