Hammer Clef - The Chakra Initiative

(/) Slide Up  (\) Slide Down  (h) Hammer On  (p) Pull Off  (b) Bend (r) Release (v) Vibrato


E|-----------------------------------
B|-----------------------------------
G|-----------------------------------
D|-----------------------------------
A|--2--2--0--0--2--2--0--0--3--3--3--
E|--2--2--0--0--2--2--0--0--3--3--3--



E|------------------------------------------
B|------------------------------------------
G|------------------------------------------
D|------------------------------------------
A|-------------5----------------------3-----
E|--2--2----2-----2--2p0--0--0--0--3--------



E|--------------------------------------------
B|--------------------------------------------
G|--------------------------------------------
D|--2--2--2----2--2--2----2--0----0--3--3--3--
A|--2--2--2--5p2--2--2----2--0----0--3--3--3--
E|--2--2--2----2--2--2----2--0----0--3--3--3--



E|---------------------------------------
B|-------------0-------------0-----------
G|-------------0-------------0-----------
D|--2--2----2--0--2--2----2--0--2--0--3--
A|--2--2----2-----2--2----2-----2--0--3--
E|--2--2----2-----2--2----2-----2--0--3--
http://www.guitartabcreator.com
Guitar Tab Creator is intended to store guitar tab created through the tool. It currently does not support in-line text editing. Any text you place in here will be lost. If you need to comment on your tab, please use the "Tab Notes" section located below.