Green Aeon - The Chakra Initiative

(/) Slide Up  (\) Slide Down  (h) Hammer On  (p) Pull Off  (b) Bend (r) Release (v) Vibrato
E|-----------10-----------10------------13-------------13----------6-----------6-----------3-----------3--
B|-----8---------8-----8---------11---------11-----11---------3/4-----4-----4--------1-----------1--------
G|--0-----0---------0---------0------0----------0----------0-------------0--------0-----0-----0-----0-----
D|--------------------------------------------------------------------------------------------------------
A|--------------------------------------------------------------------------------------------------------
E|--------------------------------------------------------------------------------------------------------



E|--------------------------------------------------------------------------------------------------
B|--------------------------------------------------------------------------------------------------
G|--------------------------------------------------------------------------------------------------
D|--------------------------------------------------8-----8-----8-----8-----5-----5-----5-----5-----
A|--5-----5-----5-----5-----8-----8-----8-----8--------6-----6-----6-----6-----3-----3-----3-----3--
E|-----3-----3-----3-----3-----6-----6-----6-----6--------------------------------------------------



E|--------------------------------------------------------------------------------------------
B|--------------------------------------------------------------------------------------------
G|--------------------------------------------------------------------------------------------
D|--------------------------------------------------------------------------------------------
A|--------------------------------------5-----5--------------------------------------8-----8--
E|--3--3--3--3--3--3--3--3--3--3--3--3-----3-----6--6--6--6--6--6--6--6--6--6--6--6-----6-----



E|--------------------------------------------------------------------------------------------
B|--------------------------------------------------------------------------------------------
G|--------------------------------------------------------------------------------------------
D|--------------------------------------8-----8--------------------------------------5-----5--
A|--6--6--6--6--6--6--6--6--6--6--6--6-----6-----3--3--3--3--3--3--3--3--3--3--3--3-----3-----
E|--------------------------------------------------------------------------------------------



E|------------------------------------------------------------------------------------------------
B|---------------------------------------------------------------------1--------------------------
G|------------------------------------------------------------------0--------0-----0--------------
D|------------------------------------------------------------------------2-----0-----------------
A|------------------------------------------------------------------------------------3-----------
E|------------------------------------------------------------------------------------------------



E|--------------------------------------------------------------------------------------------------
B|--------------------------------------------------------------------------------------------------
G|--------------------------------------------------------------------------------------------------
D|--8--8--8--8--8--8--8--8--8--8--8--8--8--8--8--8--5--5--5--5--5--5--5--5--5--5--5--5--5--5--5--5--
A|--6--6--6--6--6--6--6--6--6--6--6--6--6--6--6--6--3--3--3--3--3--3--3--3--3--3--3--3--3--3--3--3--
E|--------------------------------------------------------------------------------------------------



E|----------------------------------------------------------------------------------------------------
B|----------------------------------------------------------------------------------------------------
G|----------------------------------------------------------------------------------------------------
D|------------------------------------------------------------------5-------------5-------------5--5--
A|---------------------------------------------------------------------3--3----3-----3--3----3--------
E|----------------------------------------------------------------------------------------------------
http://www.guitartabcreator.com
Guitar Tab Creator is intended to store guitar tab created through the tool. It currently does not support in-line text editing. Any text you place in here will be lost. If you need to comment on your tab, please use the "Tab Notes" section located below.