The Beholder - The Chakra Initiative

(/) Slide Up  (\) Slide Down  (h) Hammer On  (p) Pull Off  (b) Bend (r) Release (v) Vibrato


E|-------------------------------------------------
B|-------------------------------------------------
G|--5/7------5/7--5---------5/7--5-----------------
D|-------------------7--------------7------5-------
A|----------------------------------------------5--
E|-------------------------------------------------



E|------------------------------------------------------------------------------------------------------
B|------------------------------------------------------------------------------------------------------
G|--5/7------5/7--5---------5/7--5-------7--7--7----10--10--10--12--10--14--14--14--14--14--14--14--14--
D|-------------------7--------------7-------------------------------------------------------------------
A|------------------------------------------------------------------------------------------------------
E|------------------------------------------------------------------------------------------------------



E|---------------------------------------------------------------------------------------------------
B|---------------------------------------------------------------------------------------------------
G|--14--14--12--12----------12--12--14--14--12--12----------12------12-------------------------------
D|------------------14--14--------------------------14--14------14--------14--12--14--12\10--10--10--
A|---------------------------------------------------------------------------------------------------
E|---------------------------------------------------------------------------------------------------



E|------------------------------------------------------------------------------------
B|------------------------------------------------------------------------------------
G|------------------------------------------------------------------------------------
D|--10--12--10--8--10--8\5----5--5--5-------------------------------------------------
A|-------------------------------------3--5--3--5--3--5--3--5----3--5--3--5--3--5--3--
E|------------------------------------------------------------------------------------
http://www.guitartabcreator.com
Guitar Tab Creator is intended to store guitar tab created through the tool. It currently does not support in-line text editing. Any text you place in here will be lost. If you need to comment on your tab, please use the "Tab Notes" section located below.