Sweet home Alabama (solo)

(/) Slide Up  (\) Slide Down  (h) Hammer On  (p) Pull Off  (b) Bend (r) Release (v) Vibrato


E|--16b15--14----------------------------------------------------------------------
B|-------------15------15--15--15------13------------------------------------------
G|-----------------14--------------14------15--14--12--14------12v--12--14------14b
D|---------------------------------------------------------12---------------12-----
A|---------------------------------------------------------------------------------
E|---------------------------------------------------------------------------------



E|---------------------------------------------------------------------------------------------
B|---------------------------------------------------------------------------------------------
G|--9\13--12--14------14b------------12--14h----12v--14b12--12---------------------------------
D|----------------12-----12--13--14---------14------------------14--12--14--12/9--9--9--10--9--
A|---------------------------------------------------------------------------------------------
E|---------------------------------------------------------------------------------------------



E|-----------
B|-----------
G|-----------
D|-----------
A|--10-------
E|------9b---
http://www.guitartabcreator.com
Guitar Tab Creator is intended to store guitar tab created through the tool. It currently does not support in-line text editing. Any text you place in here will be lost. If you need to comment on your tab, please use the "Tab Notes" section located below.