Miley Cyrus - The climb (solo; d-dur)

(/) Slide Up  (\) Slide Down  (h) Hammer On  (p) Pull Off  (b) Bend (r) Release (v) Vibrato


E|-------------------------------------|-------------------------------------
B|-----------5--5--7--7--7p5-----------|-----------5--5--7--7--7p5-----------
G|--7--7--7-------------------7--7--7--|--7--7--7-------------------7--7--7--
D|-------------------------------------|-------------------------------------
A|-------------------------------------|-------------------------------------
E|-------------------------------------|-------------------------------------



E|---------------------------------------------------
B|--7p5--5/3-----------------------------------------
G|------------2--4/6--7--4--6--7--7\9\11--12--12\14--
D|---------------------------------------------------
A|---------------------------------------------------
E|---------------------------------------------------
http://www.guitartabcreator.com
Guitar Tab Creator is intended to store guitar tab created through the tool. It currently does not support in-line text editing. Any text you place in here will be lost. If you need to comment on your tab, please use the "Tab Notes" section located below.