am c g

(/) Slide Up  (\) Slide Down  (h) Hammer On  (p) Pull Off  (b) Bend (r) Release (v) Vibrato


E|--------------------------------
B|-----1-----0--1-----1-----0--1--
G|-----2-----0--2-----2-----0--2--
D|-----2-----0--2-----2-----0--2--
A|--0-----0-----0--0-----0-----0--
E|--------------------------------



E|-----------------------------------------
B|-----1-----0-----1-----0-----1-----0--1--
G|-----2-----0-----0-----0-----2-----0--2--
D|-----2-----0-----2-----0-----3-----0--2--
A|--0-----0-----3-----0-----0-----0-----0--
E|-----------------------------------------
http://www.guitartabcreator.com
Guitar Tab Creator is intended to store guitar tab created through the tool. It currently does not support in-line text editing. Any text you place in here will be lost. If you need to comment on your tab, please use the "Tab Notes" section located below.